» » »

Love And Fear Tabs (ver.1)

Artists:  A B C D E F G H I J K L M N O P Q R S T U V W X Y Z # 

Love And Fear Tabs (ver.1)

Unwound
Rating:
0/5 (0 votes)

Hard to play? Try these video lessons and learn fast.
                Love and Fear

Verse
bass
|---------------------------------|
|---------------6-----------------|
|-----7-7-7-0-6-------7-7-7-0-6-0-|
|-0---------------0---------------|

guitar
|---------------0---------------0-|
|---------------0---------------0-|
|---------------0---------------0-|
|-----------0---------------0-----|
|-----7-7-7---6-------7-7-7---6---|
|-0---------------0---------------|

Build-up
bass
|---------------------------------|
|---------------------------------|
|---------------------------------|
|-6-5-6-5-6-5-6-5-4-3-4-3-4-3-4-3-|

guitar
|---------------------------------|
|---------------------------------|
|---------------------------------|
|---------------------------------|
|---------------------------------|
|-6-5-6-5-6-5-6-5-4-3-4-3-4-3-4-3-|

Chorus
bass
|---------------------------------|
|---------------------------------|
|-4-4-4-4---------4-4-4-4---------|
|---------0-0-0-0---------0-0-0-0-|

guitar
|-0-0-0-0---------0-0-0-0---------|
|-2-2-2-2---------2-2-2-2---------|
|-1-1-1-1---------1-1-1-1---------|
|---------2-2-2-2---------2-2-2-2-|
|---------2-2-2-2---------2-2-2-2-|
|---------0-0-0-0---------0-0-0-0-|

Last bit
bass
|-----------------------------------------------------------------|
|---------------------------------5-5-5-5-5-5-5-5-----------------|
|-----------------4-4-4-4-4-4-4-4-----------------7-7-7-7-7-7-7-7-|
|-0-0-0-0-0-0-0-0-------------------------------------------------|

guitar
|-0-0-0-0-0-0-0-0-0-0-0-0-0-0-0-0-0-0-0-0-0-0-0-0-0-0-0-0-0-0-0-0-|
|-5-5-5-5-5-5-5-5-2-2-2-2-2-2-2-2-8-8-8-8-8-8-8-8-5-5-5-5-5-5-5-5-|
|-----------------------------------------------------------------|
|-----------------------------------------------------------------|
|-----------------------------------------------------------------|
|-----------------------------------------------------------------|

after a while the guitar goes to this:
|-0-0-0-0-0-0-0-0-0-0-0-0-0-0-0-0-0-0-0-0-0-0-0-0-7-7-7-7-7-7-7-7-|
|-5-5-5-5-5-5-5-5-3-3-3-3-3-3-3-3-2-2-2-2-2-2-2-2-0-0-0-0-0-0-0-0-|
|-----------------------------------------------------------------|
|-----------------------------------------------------------------|
|-----------------------------------------------------------------|
|-----------------------------------------------------------------|

and then some noise.
            
Hard to play? Try these video lessons and learn fast. | Correct




comments powered by Disqus
↑ Back to top | Tablatures and chords are parodies/interpretations of the original songs. You may use it for private study, scholarship, research or language learning purposes only