>
 >
Laugh Track

Laugh Track Guitar Tabs

Unwound - Laugh Track chords, tabs, tablatures, lyrics

Guitar lessons | Add/correct | Request | Top 50 tabs Artists:  A B C D E F G H I J K L M N O P Q R S T U V W X Y Z 0-9

Laugh Track Guitar Tabs – Unwound

CD, Sheet music, Poster

Do you like Laugh Track? Share with your friends now
Tabs
Unwound
"Laugh Track"
Challenge for a Civilized Society (1998)

standard tuning

Intro
|--------------------------------------------------------------------||
|--------------------------------------------------------------------||
|------------------------------3p2p0---------------------------------|| x4
|---------8---8h9\---------4------------------------------2-2--------||
|--7-7--7---7-------3-3--3---3--------1-1---1-2-2---2-2-1------------||
|-------------------------------------------------------------1-1-1--||

Verse (00:26)
  [staccato]
|--------------------------------------------------------------------||
|--7-7-----7-7------7-7------7-7------7-7-----7-7-----7-7-----8-8----||
|--9-9-----9-9------9-9------9-9------9-9-----9-9-----9-9-----9-9----|| x2
|--9-9-----9-9------9-9------9-9------9-9-----9-9-----9-9-----9-9----||
|--7-7-----7-7------7-7------7-7------7-7-----7-7-----7-7-----7-7----||
|--------------------------------------------------------------------||
 "you should have gone to the doctor..."

Chorus (0:39)
  [staccato]
|-----12-12----12-12----12-12----12-12----||
|-----15-15----15-15----15-15----15-15----||
|-----12-15----12-12----12-12----12-12----|| x4
|-----------------------------------------||
|-----------------------------------------||
|-----------------------------------------||
     "Laugh track inside your head..."

Chorus cont.
|-----------------------------------------||
|-----12-12----12-12----12-12----12-12----||
|-----x--x-----x--x-----x--x-----x--x-----|| x2
|-----12-12----12-12----12-12----12-12----||
|-----------------------------------------||
|-----------------------------------------||


Bridge (0:59)
|------------------------------------||
|----------------------7-------------||
|-----------3p2p0--------------------|| x4
|-----4------------------------------||
|--3-----3---------/7-----7--5--3-h5-||
|------------------------------------||
                        "Running out of jokes..."

(1:12) Verse x2
(1:26) Chorus x4 + cont. x2
(1:46) Intro Riff x4
(2:12) Verse x2

Chorus w/ lead (2:25)
|-----12--------------------------------------------------------------||
|------------15-----14-----15-14h15\-12~------------------------------||
|---------------------------------------------------------------------|| x2
|---------------------------------------------------------------------||
|---------------------------------------------------------------------||
|---------------------------------------------------------------------||

Chorus cont. w/ lead
|---------------------------------------------------------------------|
|---------------------------------------------------------------------|
|-----14-----12-----11--------11h12\--8~------------------------------|
|---------------------------------------------------------------------|
|---------------------------------------------------------------------|
|---------------------------------------------------------------------|

(2:44) Bridge x8

Ending
[staccato]
|-------|
|--7-7--|
|--9-9--|
|--9-9--|
|--7-7--|
|-------|


Cheers,
Bennyshambles78





Comments


Popular Unwound tabs & chords
Abstraktions Tabs
Descension Tabs
Dragnalus 1 Tabs
Entirely Different Matters Tabs
Kantina Tabs
Negated Tabs
New Energy Tabs
October All Over Tabs
Summer Freeze Tabs
Swan Tabs


Song lyrics



↑ Back to top | Tablatures and chords are parodies/interpretations of the original songs. You may use it for private study, scholarship, research or language learning purposes only
© 2014 AZChords.com Contact us | Privacy policy | DMCA | Add/correct tabs | Request tabs | Top 50 tabs