» » »

Unwound, For Your Entertainment Tabs (ver.1)

Artists:  A B C D E F G H I J K L M N O P Q R S T U V W X Y Z # 

For Your Entertainment Tabs (ver.1)

Unwound Tabs
 Rating:
4/5 (4 votes)
For Your Entertainment lessons Tabs too difficult? Try these video lessons and learn fast
1
                ------------

All credit goes to Vincent, below. This was posted originally on an Unwound tab site 
that is now gone. Webarchive link below:

------------


(Vincent is a god for transcribing this song)

guitar

intro: crunch sound, play slowly
------------------------------------------------|
--1----1-----1-----1----1----1----1----1--------|
--2----2-----2-----2----2----2----2----2---(nc)-|
--3----0-----3-----0----3----0----3----0--------|
--3----0-----3-----0----3----0----3----0--------|
------------------------------------------------|

chorus: full distortion and very fast
------------------------------------------------|
--13-13-13-13-13-...--13-13-13-13-...-----------|
--18-18-18-18-18-...--17-17-17-17-...---7---7---|
----------------------------------------5---5---|
--(very fast)---------------------------5---5---|
------------------------------------------------|

verse:
--------------------------------------------------|
--------------------------------------------------|
--11-11-11-11-11-11-11-11----13-13-13-13-13-13-13-|
--0--0--0--0--0--0--0--0--0--0--0--0--0--0--0--0--|
--------------------------------------------------|
--------------------------------------------------|


--------------------------------------------------|
--------------------------------------------------|
--9--9---9---9--9----7--7---9--9---9--9--9---7--7-|
--------------------------------------------------|
--7--7---7---7--7----5--5---7--7---7--7--7---5--5-|
--------------------------------------------------|


play intro.
play chorus:

chorus: full distortion and very fast
------------------------------------------------|
--13-13-13-13-13-...--13-13-13-13-...-----------|
--18-18-18-18-18-...--17-17-17-17-...---7---7---|
----------------------------------------5---5---|
--(very fast)---------------------------5---5---|
------------------------------------------------|
  en     -           ter   -    tain - ment


alternative:instead of playing the 18, you can play a 1/2
bend of the 17 on the same string then releasing it to play
the real 17


end:
intro.

then play:
--------------------------------------------------|
--3--3---3---3--3----3--3---2--2---2--2--2---2--2-|
--2--2---2---2--2----2--2---2--2---2--2--2---2--2-|
--5--5---5---5--5----5--5---4--4---4--4--4---4--4-|
--5--5---5---5--5----5--5---4--4---4--4--4---4--4-|
--------------------------------------------------|


then chorus.
            
Submit corrections

comments powered by Disqus
↑ Back to top | Unwound Tabs for For Your Entertainment. Lyrics for acoustic guitar and electric guitar. 1 Tablatures and chords are parodies/interpretations of the original songs. You may use it for private study, scholarship, research or language learning purposes only