» » »

Fiction Friction Tabs (ver.1)

Artists:  A B C D E F G H I J K L M N O P Q R S T U V W X Y Z # 

Fiction Friction Tabs (ver.1)

Unwound
Rating:
0/5 (0 votes)

Tabs too difficult? Try these video lessons and learn fast.
                This is an updated version of the intro:
An alternative way of playing the intro to Fiction Friction

intro
guitar
|--------------3--------------------------------------------------|
|----3-0-----1------1-0-1-1-1---1-0-1----0---------3--3/5--5--3---|
|----0-------0------------------------------0---0---------------0-|
|----0------------------------------------------------------------|
|----3------------------------0--------0--------------------------|
|---------------------------------------------0-------------------|
 

This is dale's original tab of the song:
so far i only have the intro and verse, up until it gets loud.

guitar - false intro
|-------------------|
|-3-0-----------0---|
|-0-----------------|
|-0-----------0-----|
|-3-----------------|
|-------------------|

intro
guitar
|---------------3-----------------------------------------0-0-----|
|-----3-0-----0-----------0-----------0-------0-------3--s5---3---|
|-----0-------5---------5---5-5-5---5---5---5---0---0---0-------0-|
|-----0-------5---------------------------------------------------|
|-----3---------------------------0-------0-----------------------|
|-------------------------------------------------0---------------|

bass
|-----------------------------------------------------------------|
|-----------------------------------------------------------------|
|-3-----------3-3h5-5---------------------------------------------|
|-------------------------------3-5-5-5-5-5-5-5-5-s15-15-15-15-15-|

verse
guitar
|---------------------------------0---------------------------0-0-|
|-1-------------------------1-1-0-0-------------------------1-1-0-|
|-0-------0-------0-------0-0-0-0-0---------------0-------0-0-0-0-|
|-0---0-0-0-0-0-0-0-0-0-0-0-0-0-0-0---0-0-0-0-0-0-0-0-0-0-0-0-0-0-|
|-3---3-3-2-3-3-3-2-3-3-3-3-3-3-3-3---3-3-2-3-3-3-2-3-3-3-3-3-3-3-|
|-----------------------------------------------------------------|
     "it's a shattered day...         it's a shattered day..."

|-0-0-0-0-0-0-0-0-0-0-0-0-0-0-0-0-|
|-0-0-0-0-0-0-0-0-0s5-5-5-5-3-3-3-|
|-2-2-2-2-2-2-2-2-2-------------0-|
|-2-2-2-2-2-2-2-2-2---------------|
|-0-0-0-0-0-0-0-0-0---------------|
|---------------------------------|
       "so what..."

bass
|-----------------------------------------------------------------|
|-----------------------------------------------------------------|
|-3---3-3-2-3-3-3-2-3-3-3-3-3-3-3-3---3-3-2-3-3-3-2-3-3-3-3-3-3-3-|
|-----------------------------------------------------------------|

|---------------------------------|
|---------------------------------|
|-0---0-0-0-0---0-0---12-12-12-12-|
|---------------------------------|

that's all i know.
            
Tabs too difficult? Try these video lessons and learn fast.




comments powered by Disqus
↑ Back to top | Tablatures and chords are parodies/interpretations of the original songs. You may use it for private study, scholarship, research or language learning purposes only