» » »

Descension Tabs (ver.2)

Artists:  A B C D E F G H I J K L M N O P Q R S T U V W X Y Z # 

Descension Tabs (ver.2)

Unwound
Rating:
0/5 (0 votes)

Hard to play? Try these video lessons and learn fast.
                UNWOUND - DECENSION

-----------------------------------------------------------

e|---------------------------------------------------------|
B|--12--12-12-12-12-12-12-12-12-12-12-12-12-12-12-12-12-12-|
G|-(11)-12-12-12-12-12-12-12-12-12-11-11-11-11-11-11-11-11-|
D|-(9-)-9--9--9--9--9--9--9--9--9--12-12-12-12-12-12-12-12-|
A|-(10)-10-10-10-10-10-10-10-10-10-9--9--9--9--9--9--9--9--|
E|---------------------------------------------------------|

Only plays ()s on first time

e|-----------------------------|
B|-----------------------------|
G|-7-9-9-9-9-9-9-8-8-8-8-8-8-8-|
D|-5-5-5-5-5-5-5-5-5-5-5-5-5-5-| x2
A|-7-7-7-7-7-7-7-6-6-6-6-6-6-6-|
E|-----------------------------|

play x4
---------------------------------------------------------


e|-------------------------------------------------|
B|-------------------------------------------------|
G|-12-12-12-12-12-12-12-12-12-12-12-12-12-12-12-12-|
D|-9--9--9--9--9--9--9--9--9--9--9--9--9--9--9--9--| x2
A|-10-10-10-10-10-10-10-10-10-10-10-10-10-10-10-10-|
E|-------------------------------------------------|

e|------------------------------------------------------|
B|-3-3-3-3-3-3-3-3-3-3-3-3-3-3-3-11BU(12-12-12-12BD11)--|
G|------------------------------------------------------|
D|------------------------------------------------------| x4
A|-5-5-5-5-5-5-5-5-5-5-5-5-5-5-5------------------------|
E|-3-3-3-3-3-3-3-3-3-3-3-3-3-3-3------------------------|

e|---------- x2 -----------|-------- x2 ---------|
B|-------------------------|---------------------|
G|-12-12-12-12-12-12-12-12-|---------------------|
D|-9--9--9--9--9--9--9--9--|-7-7--7--7--7--7-7-7-| x2
A|-10-10-10-10-10-10-10-10-|-8-10-10-10-10-8-8-8-|
E|-------------------------|---------------------|

e|------------------------------------------------------|
B|-3-3-3-3-3-3-3-3-3-3-3-3-3-3-3-11BU(12-12-12-12BD11)--|
G|------------------------------------------------------|
D|------------------------------------------------------| x4
A|-5-5-5-5-5-5-5-5-5-5-5-5-5-5-5------------------------|
E|-3-3-3-3-3-3-3-3-3-3-3-3-3-3-3------------------------|

e|-------------------------------------------------|
B|-------------------------------------------------|
G|-12-12-12-12-12-12-12-12-12-12-12-12-12-12-12-12-|
D|-9--9--9--9--9--9--9--9--9--9--9--9--9--9--9--9--| x4
A|-10-10-10-10-10-10-10-10-10-10-10-10-10-10-10-10-|
E|-------------------------------------------------|

e|----------------------------|
B|--------8-----8---8-----8---|
G|--------5-----5---5-----5---|
D|----------------------------| 
A|----------------------------|
E|-8--8-8---8-8---8---8-8---8-|

--------------------------------------------------------

e|----------------------------------------------------|
B|-12-12-12-12-12-12-12-12-12-12-12-12-12-12-12-12-12-|
G|-12-12-12-12-12-12-12-12-12-11-11-11-11-11-11-11-11-|
D|-9--9--9--9--9--9--9--9--9--12-12-12-12-12-12-12-12-|
A|-10-10-10-10-10-10-10-10-10-9--9--9--9--9--9--9--9--|
E|----------------------------------------------------|

e|-----------------------------|
B|-----------------------------|
G|-7-9-9-9-9-9-9-8-8-8-8-8-8-8-|
D|-5-5-5-5-5-5-5-5-5-5-5-5-5-5-| x2
A|-7-7-7-7-7-7-7-6-6-6-6-6-6-6-|
E|-----------------------------|

play x4
---------------------------------------------------------
            
Hard to play? Try these video lessons and learn fast. | Correct




comments powered by Disqus
↑ Back to top | Tablatures and chords are parodies/interpretations of the original songs. You may use it for private study, scholarship, research or language learning purposes only