>
 >
Demolished

Demolished Guitar Tabs

Unwound - Demolished chords, tabs, tablatures, lyrics

Guitar lessons | Add/correct | Request | Top 50 tabs Artists:  A B C D E F G H I J K L M N O P Q R S T U V W X Y Z 0-9

Demolished Guitar Tabs – Unwound

CD, Sheet music, Poster

Do you like Demolished? Share with your friends now
Tabs
Tuning: STANDARD

----------------------------------------------------------------------------------

Intro\Chorus:

 e-------------------------------------------------|
 B--6-6--6-6-6-6--6-6-6--x-x---8-8--x-x-x--8-8-8---|
 G--7-7-(5-7)7-7-(5-7-5)-9-9-x-0-0--9-9-9--0-0-0---|
 D--x-x--0-0-x-x--0-0-0--x-x-x-x-x--x-x-x--x-x-x---| 4x
 A--5-5------5-5---------7-7---7-7--7-7-7--7-7-7---|
 E-------------------------------------------------|

Verse:

 e-------------------------------------------------|
 B------3-----3---0-0--0-0--3-2-0------------------|
 G------0-----0---0-0--0-0--0-0-0------------------|
 D------0-----0---x-x--x-x--x-x-x------------------| 4x
 A----------------2-2----2------2------------------|
 E--3-3---3-3---3----------------------------------|

 e---(0)-------------------------------------------|
 B----0-0-0-0-0-0-0-0-0-0-0------------------------|
 G----2-2-0-2-0-2-2-2-0-2-0------------------------|
 D----2-2-2-2-2-2-2-2-2-2-2------ 1 bar -----------|
 A----0-0-0-0-0-0-0-0-0-0-0------------------------|
 E-------------------------------------------------|

Break:

 e-----------------------------------------------------------------------------|
 B--------------------------------------------(0)---(0)---(0)---(0)---(0)------|
 G------10-----10-----10-----10-----10---------x-----x-----x-----x-----x-------|
 D------0------0------0------0------0----------7-----7-----7-----7-----7-------| 4x
 A-----------------------------------------------------------------------------|
 E--9-9----9-9----9-9----9-9----9-9----9-\-6-6---6-6---6-6---6-6---6-6---6-/---|

 e-(x)---------------------------------------------|
 B-(3)---------------------------------------------|
 G--0----------------------------------------------|
 D--0--- hit repeatedly for 8 bars ----------------|
 A--x----------------------------------------------|
 E--3----------------------------------------------|

 e--------------------------------------!hit G5 for 3 bars!-|
 B-/13-13-13-13-13-13-\-10-10-10-10-10--\-3-----------------|
 G--0--0--0--0--0--0----0--0--0--0--0-----0-----------------|
 D-(12-12-12-12-12-12)--x--x--x--x--x-----0-----------------|
 A-/13-13-13-13-13-13---10-10-10-10-10----x-----------------|
 E----------------------------------------3-----------------|

 e----------------------------------------|
 B-/13-13-13-13-13-13-\-10-10-10-10-10--\-|
 G--0--0--0--0--0--0----0--0--0--0--0-----|
 D-(12-12-12-12-12-12)--x--x--x--x--x-----|
 A-/13-13-13-13-13-13---10-10-10-10-10----|
 E----------------------------------------|

----------------------------------------------------------------------------------

SONG STRUCTURE

Intro:4x
Verse:2x
Chorus:2x
Verse:2x
Break:1x
Verse:1x

----------------------------------------------------------------------------------

Tablature explanation:
######################
B       Full Bend
b       1/2  Bend
bb      1/4  Bend
~~~~~   Tremolo
^(#)    Bend to (#)
/       Slide up
\       Slide down
h       Hammer-on
p       Pull-off
(#)     Ghost note
%       Rest
######################





Comments


Popular Unwound tabs & chords
Abstraktions Tabs
Descension 1 Tabs
Entirely Different Matters 1 Tabs
Here Come The Dogs Tabs
Kantina Tabs
Message Received Tabs
Negated Tabs
Side Effects Of Being Tired Tabs
Summer Freeze Tabs
Swan Tabs


Song lyrics



↑ Back to top | Tablatures and chords are parodies/interpretations of the original songs. You may use it for private study, scholarship, research or language learning purposes only
© 2014 AZChords.com Contact us | Privacy policy | DMCA | Add/correct tabs | Request tabs | Top 50 tabs