» » »

Unwound, Corpse Pose Tabs (ver.2)

Artists:  A B C D E F G H I J K L M N O P Q R S T U V W X Y Z # 

Corpse Pose Tabs (ver.2)

Unwound Tabs
 Rating:
4/5 (4 votes)
Corpse Pose lessons Tabs too difficult? Try these video lessons and learn fast
                Unwound - Repetition - Corpse Pose

Tuning: DAEAAD


Part 1 x4
d|--7-7-7\--------------------7-7-7---7-7--7-7-----|
A|--7-7-7\--------------------7-7-7---7-7--9-9-----|
A|--7-7-7\-----0---2b3r2-0----7-7-7---7-7--7-7-----|
E|--7-7-7\--------------------7-7-7---7-7--7-7-----|
A|----------s3---3---------------------------------|
D|-------------------------------------------------|

Part 2 x4
d|--7-7---7-7---------7-7-|
A|--7-7---9-9---------7-7-|
A|--7-7---7-7---5-5---7-7-|
E|--7-7---7-7---3-3---7-7-|
A|--------------5-5-------|
D|------------------------|

Part 3 x6
d|----------------------------------------------------|
A|---------12---12-12----------10---10-10-------------|
A|---------12---12-12----------10---10-10-------------|
E|---------15---15-15----------10---10-10-------------|
A|-0-0-0-0-------------0-0-0-0------------------------|
D|----------------------------------------------------|

Part 1 x4

Part 2 x4

Part 3 x6

Part 4 x4
d|----------------------------------------|
A|----------------------------------------|
A|-----7-5-------0---2b3r2-0--------------|
E|--------------------------------5-6-----|
A|--/8-----8--/3---3------------8---------|
D|---------------------------/6-----------|
^theres a synth following this part but this is a guitar tab.

Part 3 x4

Part 4 x6

Part 5 x5
d|--------------------|
A|--------------------|
A|--------------------|
E|-5+----3-3-3-3------|
A|-5+----3-3-3-3------|
D|-5+----3-3-3-3------|


************************************

| /   slide up
| \   slide down
| h   hammer-on
| p   pull-off
| ~   vibrato
| +   harmonic
| x   Mute note
| b   Bend
| pb  Pre-bend
| br  Bend release
| pbr Pre-bend release
| brb Bend release bend

************************************
            
Submit corrections

comments powered by Disqus
↑ Back to top | Unwound Tabs for Corpse Pose. Lyrics for acoustic guitar and electric guitar. Tablatures and chords are parodies/interpretations of the original songs. You may use it for private study, scholarship, research or language learning purposes only