» » »

Broken E-strings Tabs (ver.1)

Artists:  A B C D E F G H I J K L M N O P Q R S T U V W X Y Z # 

Broken E-strings Tabs (ver.1)

Unwound
Rating:
0/5 (0 votes)

Hard to play? Try these video lessons and learn fast.
                #################################################
Tuning: Standard
Notes: I couldn't find the lyrics, so listen for the part changes
#################################################

Intro I (4x)

 e-------------------------------------------------|
 B-------------------------------------------------|
 G-----------------7\5-----------------------------|
 D---------9\7----------------- Fill I ------------|
 A-------------------------------------------------|
 E--0h9---------7-------5-------5-5-5--------------|

Intro II (8x)

 e----------------------------- Fill II --------------------| last time (8th)
 B----------------------------------------- -- Fill III ----|
 G-----------------7\5------------0---0---- -----------(0)--|
 D---------9\7------------------4---4------ ---------0--0---|
 A----------------------------------------- ------x--x------|
 E--0h9---------7-------5------------------ ---5--5--5--5---|

Intro III\Post Chorus (4x)

 e------------------------(0)--0-0-----------------|
 B-------------------------0---0-0-----------------|
 G-------------------------9---9-9-----------------|
 D---9--10-9--12-9----7~---7---7-7-----------------|
 A---0--0--0--0--0----0~---0---0-0-----------------|
 E-------------------------------------------------|

VOLUME ON!

Verse I (4x) - inaudiable screaming

 e---------------------------------------|
 B---------------------------------------|
 G------14-----11--9---11--7--7-7-7-7----|
 D------x------x---x---x---x--0-0-0-0----|
 A------12-----9---7---9---5--x-x-x-x----|
 E--0-0----0-0---0---0---0----6-6-6-6----|

Chorus - inaudiable screaming

 e-----------------------------------------------|
 B-----------------------------------------------|
 G----7--x--7--x--7--x--7------------------------|
 D----0--x--0--x--0--x--0------ alltogether 16x -|
 A----x--x--x--x--x--x--x------------------------|
 E----6--x--6--x--6--x--6------------------------|
 the x's in between the Bb(no5)'s indicate noise!, not a muted hit


Repeat Intro III\Post Chorus 4x

VOLUME OFF!

Repeat Intro II 8x (Justin sings:"Broken E Strings,...")

Repeat Intro III\Post Chorus(4x)

VOLUME ON!

Repeat Verse I (4x)

Repeat Chorus (16x)

End on:

 e----------------|
 B----------------|
 G----------------|
 D---7------7-----|
 A---x--or--0-----|
 E---5------------|

Tablature explanation:
######################
B       Full Bend
b       1/2  Bend
bb      1/4  Bend
~~~~~   Tremolo
^(#)    Bend to (#)
/       Slide up
\       Slide down
h       Hammer-on
p       Pull-off
(#)     Ghost note
%       Rest
######################
            
Hard to play? Try these video lessons and learn fast. | Correct




comments powered by Disqus
↑ Back to top | Tablatures and chords are parodies/interpretations of the original songs. You may use it for private study, scholarship, research or language learning purposes only