>
 >
Arboretum

Arboretum Guitar Tabs

Unwound - Arboretum chords, tabs, tablatures, lyrics

Guitar lessons | Add/correct | Request | Top 50 tabs Artists:  A B C D E F G H I J K L M N O P Q R S T U V W X Y Z 0-9

Arboretum Guitar Tabs – Unwound

CD, Sheet music, Poster

Do you like Arboretum? Share with your friends now
Tabs

Verse
guitar
|-----------------------------------------------------------------|
|-----------------0-0-0-0-0-0-0-0-----------------0-0-0-0-0-0-0-0-|
|-0---0-0-0---0-0-2-2-2-2-2-4-4-4-0---0-0-0---0-0-2-2-2-2-2-0-0-0-|
|-3---3-3-3---3-0-2-2-2-2-2-0-0-0-3---3-3-3---3-0-2-2-2-2-2-0-0-0-|
|-3---3-3-3---3-0-0-0-0-0-0-0-0-0-3---3-3-3---3-0-0-0-0-0-0-0-0-0-|
|-----------------------------------------------------------------|
     "I'm at home..."
bass
|-----------------------------------------------------------------|
|---------------------------2-2-0---------------------------2-2-0-|
|-----------------0-0-0-0-0-----------------------0-0-0-0-0-------|
|-1---1-1-1---1-1-----------------1---1-1-1---1-1-----------------|

Build up
guitar
|---------------------------------|
|-0-0-0-0-0-0---0-0-0-0-0-0-0-0-0-|
|-2-2-2-2-3-2---2-2-2-2-2-2-2-2-2-|
|-3-----3-3-3-3---4-4-4-4-4-4-4-4-|
|---------------------------------|
|---------------------------------|
   "cuz i...      disillusion..."
bass
|---------------------------------|
|---------------------------------|
|---------------------------------|
|-6-6-6-6-6-6-6-0-7-7-7-7-7-7-7-0-|

Chorus
guitar (best guess)
|---------0---------0-------0---0-0---0-0-0---0-0---0-0-0-0-0-0---|
|---------8---------8-------8---0-8---8-8-8---8-8---8-8-8-8-8-8---|
|---------7---------7-------7---0-9---9-9-9---9-9---101010101010--|
|---------------------------------0-------0---0-0-----------------|
|-8-------8-----8---8---8---8-------------------------------------|
|---------------------------------8-------8---8-8-----------------|
("101010101010" = 6 tens, not 6 one-zero's)

bass
|-----------------------------------------------------------------|
|---------3---------3---3---3-3-2-------------------2-2---2-3-3-3-|
|---------------------------------3---3-3-3-3-3-3-------3---------|
|-1-------1-----1-------1---1-------------------------------------|

repeat the verse - build up - chorus again, then play the interlude:

Interlude
guitar 1
|------------------------||-------c-----c---------||
|------------------------||-------l-----h---------||
|------------------------||o------i-----o--------o||
|-2----------------------||o-0----n-----r--------o||
|-3----------------------||-------k-----d---------||
|-1----------------------||-----------------------||
(let the first chord ring for 13 measures)
(repeat the second part 8 times, playing the harmonic part along 
    with it every other time - see below)
('clink' = play behind the nut)
('chord' = either a chord that i can't figure out, or more clinking
 behind the nut or bridge)

bass
|------------------------||-----------------------||
|------------------------||o-3-------------------o||
|------------------------||o---------------------o||
|-1----------------------||------------<5>--------||
(let ring 13 measures)    (first time tacet)
(<5> = natural harmonic at the fifth fret)

harmonics part
guitar 2 (all harm.)
|----------------------------------------|
|----------------------------------------|
|----12-------------------12-------------|
|-12----12-------------12----12----------|
|------------12-------------------12-----|
|----------------------------------------|

next part of interlude
guitar 2 (vague strumming)
|-----------------------------------------------------------------|
|-----------------------------------------------------------------|
|-----------------------------------------------------------------|
|---------------------------------0---0-0-0---0-0-----0-------0---|
|-3-------3-----3-------3-----3---------------------0-----0-------|
|-----5-5-----5-----5-------5---5---------------------------------|

|-----------------------------------------------------------------|
|-0-----------------0---------------------------------------------|
|-----2---2-----2-------2-----------------------------------------|
|-------0-----0-------------0-------------------------------------|
|-------------------------------3-------3-----3-------3-----3-----|
|-----------------------------------5-5-----5-----5-------5---5---|

bass (vague strumming)
|-----------------------------------------------------------------|
|-----------------------------------------------------------------|
|-0---0---0---0---0---0---0---0---5---5---5---5---5---5---5---5---|
|-----------------------------------------------------------------|

|-----------------------------------------------------------------|
|-----------------------------------------------------------------|
|---------------------------------3---3---3---3---3---3---3---3---|
|-3---3---3---3---3---3---3---3-----------------------------------|

repeat all this four times. The first two times, the second guitar plays
some very vague stuff on this chord:
|-0-|
|-1-|
|-2-|
|---|
|---|
|---|
on the third time, play this twice
|-3-0-0-3-0-0-3-0-0-3-0-0-3-0-0-------------------------------|
|-1-1-1-1-1-1-1-1-1-1-1-1-1-1-1---1------1------1------1------|
|-2-2-2-2-2-2-2-2-2-2-2-2-2-2-2------2-------2------2------2--|
|-------------------------------------------------------------|
|-------------------------------------------------------------|
|-------------------------------------------------------------|
on the fourth time fool around on that chord again.
get loud and play the chorus again

the last chord (best guess)
guitar
|-7-|
|-8-|
|-7-|
|---|
|-8-|
|---|
(bend or slide this chord around to make noise)

bass
|-----|
|-----|
|-----|
|-1/3-|
(bend or slide from 1 to 3)





Comments


Popular Unwound tabs & chords
Corpse Pose 1 Tabs
Disappoint Tabs
Fiction Friction Tabs
Fingernails On Chalkboard Tabs
Lifetime Achievement Award Tabs
Love And Fear 1 Tabs
New Energy Tabs
October All Over Tabs
October All Over Intro Tabs
What Went Wrong Ukulele


Song lyrics



↑ Back to top | Tablatures and chords are parodies/interpretations of the original songs. You may use it for private study, scholarship, research or language learning purposes only
© 2014 AZChords.com Contact us | Privacy policy | DMCA | Add/correct tabs | Request tabs | Top 50 tabs