» » »

Unwound, Against Tabs (ver.1)

Artists:  A B C D E F G H I J K L M N O P Q R S T U V W X Y Z # 

Against Tabs (ver.1)

Unwound Tabs
 Rating:
4/5 (4 votes)
Against lessons Tabs too difficult? Try these video lessons and learn fast
1
                
part A
guitar
|-----------------------------------------------------------------|
|-----------------------------------------------------------------|
|-----------------------------------------------------------------|
|-------------------------------3---------------3-----------------|
|-4---3---3-3-3-4---3-3---3-3-3-1---2-2---2-2-2-1---2-2---2-2-2-4-|
|-2---1---1-1-1-2---1-1---1-1-1-----0-0---0-0-0-----0-0---0-0-0-2-|

|-----------------------------------------------------------------|
|-----------------------------------------------------------------|
|-----------------------------------------------------------------|
|-------------------------------3---------------3-----------------|
|---3-3---3-3-3-4---3-3---3-3-3-1---2-2---2-2-2-1---2-2---2-2-2---|
|---1-1---1-1-1-2---1-1---1-1-1-----0-0---0-0-0-----0-0---0-0-0---|

bass
|-----------------------------------------------------------------|
|-----------------------------------------------------------------|
|-----------------------------------------------------------------|
|-2---1---1-1-1-2---1-1---1-1-1-----0-0---0-0-0-----0-0---0-0-0-2-|

|-----------------------------------------------------------------|
|-----------------------------------------------------------------|
|-----------------------------------------------------------------|
|---1-1---1-1-1-2---1-1---1-1-1-----0-0---0-0-0-----0-0---0-0-0---|

part B
one guitar play what sounds like the E or A string palm-muted, 
strumming as fast as you can
the other guitars make feedback
bass
|-----------------------------------------------------------------|
|-----------------------------------------------------------------|
|-----------------------------------------------------------------|
|-0----------------0----------------0----------------0------------|
  "against my mind   against my soul  against my eye..."

part C
guitar
|-------------------------------------------------------------|
|-------------------------------------------------------------|
|-9-8-8-8-8-8-8-8-8-8-8-8-8-8-8-8s15---s13---s11--------------|
|-------------------------------------------------------------|
|-7-6-6-6-6-6-6-6-6-6-6-6-6-6-6-6s13---s11---s9---------------|
|---------------------------------^---------------------------|
s = slide to the note
^ = switch right here to one measure of 7/8 time (but not on the 
fourth repeat)
on the recording, at the end of each repeat brandt hits the snare.
this is the "7", i.e. the seventh count in 7/8 time. on the fourth
repeat of part C, there is no change to 7/8 time; the song remains
in 8/8 time and brandt hits the snare on the "8" count. on the 
other hand, maybe it was supposed to be in 7/8 time but brandt was
just lagging...

bass
|-------------------------------------------------------------|
|---------------------------------------8-----9---------------|
|-7-6-6-6-6-6-6-6-6-6-6-6-6-6-6-6-7---------------------------|
|-------------------------------------------------------------|

order
A, B, A, B, C four times, B, A, B, C four times
then play the last three chords from part C over and over, slower
and slower, and disintegrate.
            
Submit corrections

comments powered by Disqus
↑ Back to top | Unwound Tabs for Against. Lyrics for acoustic guitar and electric guitar. 1 Tablatures and chords are parodies/interpretations of the original songs. You may use it for private study, scholarship, research or language learning purposes only