» » »

Louder Than Words Tabs (ver.1)

Artists:  A B C D E F G H I J K L M N O P Q R S T U V W X Y Z # 

Louder Than Words Tabs (ver.1)

Unsung Zeros
Rating:
0/5 (0 votes)

Hard to play? Try these video lessons and learn fast.
                I saw another tab online that said they thought this song was probably
tuned very differently..
so I tried a few things in D chord variations, and came up with this.
(Note, modified: I listened to the song again & realized they're playing
open string, not 12)

Unsung Zeros - Louder Than Words (Acoustic Intro Only)

Tuning:
E (normal)
A (down 3)
A (up   2)
D (normal)
A (normal)
D (down 1)

Key:
- = 1/8th beat
/ = slide

(picking finger #)
0 = thumb
1 = forefinger
2 = middle
3 = ring
4 = pinky
- = open

spaces are used to keep things in line when using slides and other stuff

Time: 4/4

1x
=======================================================
E|0----000|0----000|0----000|0----000|0----000|0----000 
A|0----000|0----000|0----000|0----000|0----000|0----000 
A|0----000|0----000|0----000|0----000|0----000|0----000 
D|4----444|4----444|2----222|2----222|0----000|0----000 
A|4----444|4----444|2----222|2----222|0----000|0----000 
D|4----444|4----444|2----222|2----222|0----000|0----000 

1x
============================================================================
E|0 -00-00 -|00-00 -00|0----000|0----000|0----000|0-------|--------|--------|
A|0 -00-00 -|00-00 -00|0----000|0----000|0----000|0-------|--------|--------|
A|0 -00-00 -|00-00 -00|0----000|0----000|0----000|0-------|--------|--------|
D|0/222-22/4|44-42/444|4----444|2----222|2----222|5-------|--------|--------|
A|0/222-22/4|44-42/444|4----444|2----222|2----222|5-------|--------|--------|
D|0/222-22/4|44-42/444|4----444|2----222|2----222|5-------|--------|--------|

3x
#|--3-1---|--4-1-4-|--3-1---|--3-1-2-|4 -3-1-4-|2---1-1 2
=========================================================
E|--9-7---|0-5---4-|0---2-0-|--9-7---|10-9---7-|5---4-4/5 
A|-0-0-0-0|-0-0-0-0|-0-0-0-0|-0-0-0-0|- 0-0-0-0|-0-0-0--- 
A|--------|--------|--------|--------|- -------|--------- 
D|--------|--------|--------|--------|- -------|--0------ 
A|0-------|--------|--------|0-------|- ---4---|--------- 
D|------0-|----2---|--4-----|------9-|- -------|--------- 

1x
#|--3-1---|--4-1-4-|--3-1---|--3-1-2-|4 -3-1-4-|2-------
========================================================
E|--9-7---|0-5---4-|0---2-0-|--9-7---|10-9---7-|5-0-----|
A|-0-0-0-0|-0-0-0-0|-0-0-0-0|-0-0-0-0|- 0-0-0-0|-00-----|
A|--------|--------|--------|--------|- -------|--0-----|
D|--------|--------|--------|--------|- -------|--0-----|
A|0-------|--------|--------|0-------|- ---4---|--0-----|
D|------0-|----2---|--4-----|------9-|- -------|--0-----|

1x
================================================================================
=
E|0----000|0----000|0 ----0 0 0 |0 ----0 0 0 |0----000|0----000|0----000|0------|
A|0----000|0----000|0 ----0 0 0 |0 ----0 0 0 |0----000|0----000|0----000|0------|
A|0----000|0----000|0 ----0 0 0 |0 ----0 0 0 |0----000|0----000|0----000|0------|
D|9----999|9----999|11----111111|11----111111|0----000|0----000|0----000|0------|
A|9----999|9----999|11----111111|11----111111|0----000|0----000|0----000|0------|
D|9----999|9----999|11----111111|11----111111|0----000|0----000|0----000|0------|

1x
=======================================================
E|0----000|0----000|0 ----0 0 0 |0 ----0 0 0 |0-------|
A|0----000|0----000|0 ----0 0 0 |0 ----0 0 0 |0-------|
A|0----000|0----000|0 ----0 0 0 |0 ----0 0 0 |0-------|
D|9----999|9----999|11----111111|11----111111|0-------|
A|9----999|9----999|11----111111|11----111111|0-------|
D|9----999|9----999|11----111111|11----111111|0-------|

(END ACOUSTIC INTRO)
            
Hard to play? Try these video lessons and learn fast. | Correct




comments powered by Disqus
↑ Back to top | Tablatures and chords are parodies/interpretations of the original songs. You may use it for private study, scholarship, research or language learning purposes only