» » »

Unsigned, Yuk Foo - March Of The Chickens Bass tabs (ver.1)

Artists:  A B C D E F G H I J K L M N O P Q R S T U V W X Y Z # 

Yuk Foo - March Of The Chickens Bass tabs (ver.1)

Unsigned Tabs
Rating:
0/5 (0 votes)
Yuk Foo - March Of The Chickens lessons Tabs too difficult? Try these video lessons and learn fast
                G:----------5—5-3-----------3-3-5-------------------

D:-------5-------------------5----------------------

A:-3-3-----------------3-3--------------------------

E:--------------------------------------------------


G:---------9-9—7------------7-7-9-------------------

D:------9--------------------9---------------------- 

A:-7-7-----------------7-7-------------------------

E:--------------------------------------------------


G:-----13--11-h-13----------------------------------

D:-11-----------------------------------------------

A:--------------------------------------------------

E:--------------------------------------------------

repeat twice


G:--------------10--14------------------------------

D:--14----------------------------------------------

A:---------12-—-------------------------------------

E:--------------------------------------------------

repeat once then bend last note 

G:----------------------------------

D:-0-0-5-3-0-0-5-3-0-0-5-3-0-0-5-3--

A:----------------------------------

E:----------------------------------


G:---------------------------------------

D:---------------------------------------

A:00000000-55553333-00000000-5555-3333---

E:---------------------------------------

       Repeat this bit 2 times


G:-----------------------------------------------

D:-----------------------------------------------

A:---------------------------------4-5/7-7-------

E:0---0--0-0--3-3-0-----5--5--5-5----------------

Repeat 4 times

Then repeat first bit. as solo

verse
chorus
verse
chorus
            
Submit corrections

comments powered by Disqus
↑ Back to top | Unsigned Bass for Yuk Foo - March Of The Chickens. Lyrics for acoustic guitar and electric guitar. Tablatures and chords are parodies/interpretations of the original songs. You may use it for private study, scholarship, research or language learning purposes only