» » »

You Tabs (ver.1)

Artists:  A B C D E F G H I J K L M N O P Q R S T U V W X Y Z # 

You Tabs (ver.1)

Unsigned
Rating:
0/5 (0 votes)

Hard to play? Try these video lessons and learn fast.
                Intro
E.:--------------------------------------------------------
B.:--------------------------------------------------------
G.:--------------------------------------------------------
D.:--------------------------------------------------------
A.:---5------5-----5----5---5- -5-5-5-5-5-5-5-5-5-5-5-5-5-5
E.:---3------3-----3----3---3- -3-3-3-3-3-3-3-3-3-3-3-3-3-3

Starts of slow then work your way up really fast then hold that last note and go
Into the main Riff.

Main Riff

E.:---------------------------------------------------------------------------------
B.:---------------------------------------------------------------------------------
G.:---------------------------------------------------------------------------------
D.:---------------------------------------------------------------------------------
A.:----5-5-5-5-5-5-5-5---8-8-8-8-8-8-8-8---3-3-3-3-3-3-3-3---10-10-10-10-10-10-10-10
E.:----3-3-3-3-3-3-3-3---6-6-6-6-6-6-6-6---1-1-1-1-1-1-1-1---8--8--8--8--8--8--8--8

Just keep doing this tune, mix it up a bit change the timing things like that.
Put a nice drum beat to it and you are well away. My mate Luke B dose I sweet beat and it Gave the tune the finishing touch.
This tune was the first one that I made up so I hope you like it.
Written by Andy Miller
            
Hard to play? Try these video lessons and learn fast. | Correct




comments powered by Disqus
↑ Back to top | Tablatures and chords are parodies/interpretations of the original songs. You may use it for private study, scholarship, research or language learning purposes only