>
 >
You

You Guitar Tabs

Unsigned - You chords, tabs, tablatures, lyrics

Guitar lessons | Add/correct | Request | Top 50 tabs Artists:  A B C D E F G H I J K L M N O P Q R S T U V W X Y Z 0-9

You Guitar Tabs – Unsigned

CD, Sheet music, Poster

Do you like You? Share with your friends now
TabsTabs v2Tabs v3
Song Dudley DoIncorrectly
Band The Grouch
Tuning Half Step Down Eb Ab Db Gb Bb eb 
X=palm mute
/=slide up  \=slide down
***=let ring    

Intro (x3)
E-----------------------------------
B-----------------------------------
G------------------9-9-9-x-4-4-4-4
D--9-9-9---6-6-x--9-9-9-x--4-4-4-4
A--9-9-9---6-6-x-7-7-7-x--2-2-2-2
E--7-7-7---4-4-x-------------------

Verse 1 (x2)
E-----------------------------------
B-----------------------------------
G------------------9-9-9-x-6-6-4-
D-9-9-9---6-6-x-9-9-9-x-6-6-4-
A-9-9-9---6-6-x-7-7-7-x-4-4-2-
E-7-7-7---4-4-x-------------------

E-----------------------------------
B-----------------------------------
G------------------9-9-9-9-9-9-9----
D-9-9-9---6-6-x--9-9-9-9-9-9-9----
A-9-9-9---6-6-x-7-7-7-7-7-7-7----
E-7-7-7---4-4-x-------------------

Chorus
E---------------------------------------
B-10-10-10-------10-10-10-----10-10----
G-----------9-9-9----------9-9-------9-9
D---------------------------------------
A---------------------------------------
E---------------------------------------

E---------------------------------------
B-8-8-8-------8-8-8-----8-8------8-----
G--------7-7-7-------7-7-----7-7-8-----
D---------------------------------------
A---------------------------------------
E---------------------------------------

Verse 2                                    Verse 3
E--------------------------------------|------------------------------------------
B--------------------------------------|------------------------------------------
G-----------------9-9-9-x-4-4-4-4----|------------------------------------------
D-9-9-9-6-6-x--9-9-9-x--4-4-4-4----|------------------------------------------
A-9-9-9--6-6-x--7-7-7-x--2-2-2-2----|------------------------------------------
E-7-7-7--4-4-x-----------------------|------------------------------------------
                                       |  
E--------------------------------------|------------------------------------------
B--------------------------------------|------------------------------------------
G-----------------9-9-9-x-6-6-4-4---|--9-9-99-9-9-9-9---------------------9*** 
D-9-9-9-6-6-x--9-9-9-x--6-6--4-4---|--9-9-9-99-9-9-9-9-9-9-99-9-9-9----9***
A-9-9-9-6-6-x-7-7-7-x--4-4--2-2---|--7-7-7-7-77-7-7-9-9-9-9-9-9-9-9----7***
E-7-7-7-4-4-x-----------------------|-------------------7-7-7-7-77-7-7--------

Outro
E------------------------------
B10-\----4---/-5***-------5--
G--9--\---4---/--4***-------4--
D--7---\--2--/---2***-------2--
A------------------------------
E------------------------------

Order
--------
Intro
Verse 1
Verse 2
Chorus
Verse 1
Verse 2
Verse 3
Outro





Comments


Popular Unsigned tabs & chords
Desudo - Without A Sound Bass Tabs
Finalnotice - Oursong Bass Tabs
Scope - I Just Want To *** You Bass Tabs
Something Bass Tabs
Tiernan - Bassmans Riff Bass Tabs
Abyss. - Omega White Tabs
Black Dawn-Like Im Falling Tabs
Delayed Reaction - The Maria Song Tabs
Door Knob Tabs
Doubleopunk - Punk Or Nothing Tabs


Song lyrics



↑ Back to top | Tablatures and chords are parodies/interpretations of the original songs. You may use it for private study, scholarship, research or language learning purposes only
© 2014 AZChords.com Contact us | Privacy policy | DMCA | Add/correct tabs | Request tabs | Top 50 tabs