» » »

Unsigned, Yesterdays Heroes - Minefield Tabs (ver.1)

Artists:  A B C D E F G H I J K L M N O P Q R S T U V W X Y Z # 

Yesterdays Heroes - Minefield Tabs (ver.1)

Unsigned Tabs
 Rating:
4/5 (4 votes)
Yesterdays Heroes - Minefield lessons Tabs too difficult? Try these video lessons and learn fast
1
                Minefield:  performed by Without Remorse, written by Ben Swan/Dave Hanlon
Begins with bass solo, guitar fades in right 	here       
Guitar								
E------------------------------------------------------------------------------------------
B------------------------------------------------------------------------------------------
G----------------------------------------------------------------7-7-7777---------------
D----------------------------------------------------------------7-7-7777---------------
A----------------------------------------------------------------5-5-5555---------------
E------------------------------------------------------------------------------------------

Bass
G----------9------------------------------9-----------------------------------------------
D-------7------7------------7-7-7-7--------7---7----7-------0-0-0000---------------
A----8------------------0--------------8------------0------7----------------------------
E--------------------8---------------------------8--------8-------------------------x2---

Guitar here plays chords: this is also played during chorus
	A	G	D	A	G	F	E
E------0------3-------2---|--0-------3------1------0----------------------------------
B------2------3-------3---|--2-------3------1------0--------------------------------
G------2------0-------2---|--2-------0------2------1-----------------------------------
D------2------0-------0---|- 2-------0------3------2----------------------------------
A------0------2------------|-- 0------2-------------2-----------------------------------
E--------------3---------X2|---------3--------------0-----------------------------------

Bass
G----9--9---7-7-7-7-7--------------------------|9-9--7-7-7-7---555555-------------
D----7--7---5-5-5-5-5------7-7-7-77777---5|7-7---5-5-5-5--333333-------------
A-----------------------------5-5-5-55555-----|----------------------------------------
E---------------------------------------------X2-|---------------------------------------

Guitar: Rhy. Fig. 1
E------------------------------------------------------------------------------------------
B------------------------------------------------------------------------------------------
G----7---5---------------7---5---------7------------------------------------------------
D----7---5-----------5--7---5---------7-------------------------------------------------
A----5---3----3h5--5---5--3---3h5--5------------------------------------------------
E---------------------3--------------------------------------------------------------------


Bass:  Rhy Fig 1
G------------------------------------------------------------------------------------------
D------------------------------------------------------------------------------------------
A-----5--3—3h5--------5--3---3h5---5-----------------------------------------------
E---------------------3--------------------------------------------------------------------
            
Submit corrections

comments powered by Disqus
↑ Back to top | Unsigned Tabs for Yesterdays Heroes - Minefield. Lyrics for acoustic guitar and electric guitar. 1 Tablatures and chords are parodies/interpretations of the original songs. You may use it for private study, scholarship, research or language learning purposes only