» » »

X Punk - Rocking In The Moonlight Tabs (ver.1)

Artists:  A B C D E F G H I J K L M N O P Q R S T U V W X Y Z # 

X Punk - Rocking In The Moonlight Tabs (ver.1)

Unsigned
Rating:
0/5 (0 votes)

Hard to play? Try these video lessons and learn fast.
                **USE HEAVY DISTORTION**
INTRO
e|--------------------------------------|
B|--------------------------------------|
G|--------------------------------------|
D|--------------------------------------|
A|--3-3--4-4-5-5-6----6-6--5-5--4-4--3--|LET RING
E|--1-1--2-2-3-3-4----4-4--3-3--2-2--1--|

VERSE   x5
e|-------------------------------------------------------|
B|-------------------------------------------------------|
G|-------------------------------------------------------|
D|-------------------------------------------------------|
A|-------------------------------------------------------|
E|--1-1--3-3--2-2--4-4-----1-1--3-3--2-2--4-4--1-1--1-1--|
  [  ^  ^  P   A   L   M      M   U   T   E   D   ^  ^  ]


GUITAR SOLO   x2
e|----------------------------------------------------------------------|
B|----------------------------------------------------------------------|
G|----------------------------------------------------------------------|
D|----------------------------------------------------------------------|
A|----------------------------------------------------------------------|
E|--1-1-1-1-1-1-1-1--3-3-3-3-3-3-3-3--2-2-2-2-2-2-2-2--4-4-4-4-4-4-4-4--|


REPEAT VERSE   x4
REPEAT SOLO   x2
REPEAT VERSE   x2




LYRICS

I AM ROCKIN' IN THE MOONLIGHT
EVRY' DAY AND EVERY NIGHT
WE WILL ROCK AND WE WILL NOT STOP
WE WON'T STOP, NO WE WON'T STOP

WE WILL ROCK TILL YOU SHUT US DOWN
MUSIC IS HOW WE ROCK YOUR TOWN
WE WILL ROCK AND WE WILL NOT STOP
WE WON'T STOP, NO WE WON'T STOP
WE WON'T STOP, NO WE WON'T STOP!
            
Hard to play? Try these video lessons and learn fast. | Correct




comments powered by Disqus
↑ Back to top | Tablatures and chords are parodies/interpretations of the original songs. You may use it for private study, scholarship, research or language learning purposes only