» » »

Unsigned, Xcelerate-Pain Bass tabs (ver.1)

Artists:  A B C D E F G H I J K L M N O P Q R S T U V W X Y Z # 

Xcelerate-Pain Bass tabs (ver.1)

Unsigned Tabs
Rating:
0/5 (0 votes)
Xcelerate-Pain lessons Tabs too difficult? Try these video lessons and learn fast
                Intro/Outro
G|----------------------------------|
D|----------------------------------|
A|----------------------------------|
E|--3335--33354-33345554------------|

Verse
G|------------------------------------------------------------------------|
D|------------------------------------------------------------------------|
A|---33333333--------------------------------------33--------------33-----|
E|---------------333333335555555511111111----33-55---11------33-55----11--|


Pre-Chorus
G|---9------|
D|----11----|
A|-------0--|
E|----------|


Chorus
G|---------------------------0---|
D|------------------0--2--4------|
A|---------0---2--3--------------|
E|----3--------------------------|

Heavy Chorus
G|---------------------------------------|
D|---------------------2--4--5-----------|
A|-----------2--3--5---------------------|
E|----3--5-------------------------------|

Intro/Outro                   x3
Verse                         x2
Pre-Chorus                    x5
Chorus                        x5
Heavy Chorus                  x2
Verse                         x3
Heavy Chorus                  x2
Pre-chorus                    x2
chorus                        x2
Intro/Outro                   x2
            
Submit corrections

comments powered by Disqus
↑ Back to top | Unsigned Bass for Xcelerate-Pain. Lyrics for acoustic guitar and electric guitar. Tablatures and chords are parodies/interpretations of the original songs. You may use it for private study, scholarship, research or language learning purposes only