» » »

Wired Head - Wires In The Head Tabs (ver.1)

Artists:  A B C D E F G H I J K L M N O P Q R S T U V W X Y Z # 

Wired Head - Wires In The Head Tabs (ver.1)

Unsigned
Rating:
0/5 (0 votes)

Hard to play? Try these video lessons and learn fast.
                This is a song by my band….its pertty simple but it sounds cool wen u play it together.

Its called wired in the head

Intro

       Em
    
E-----0------------------
B-----0-----------------
G-----0-----------------
D-----2----------------
A-----2----------------
E-----0----------------

Chorus

        Em x2	   G
       Em
    
E-----0-----0---------3----
B-----0-----0---------0---
G-----0-----0---------0---
D-----2-----2---------0--
A-----2-----2---------2--
E-----0-----0---------3--


Verse

Bass, vocals and drums
            
Hard to play? Try these video lessons and learn fast. | Correct




comments powered by Disqus
↑ Back to top | Tablatures and chords are parodies/interpretations of the original songs. You may use it for private study, scholarship, research or language learning purposes only