» » »

White Ash Falling- Ash Tabs (ver.1)

Artists:  A B C D E F G H I J K L M N O P Q R S T U V W X Y Z # 

White Ash Falling- Ash Tabs (ver.1)

Unsigned
Rating:
0/5 (0 votes)

Hard to play? Try these video lessons and learn fast.
                intro guitar one

E|---------------------------------
B|-----3-------3-------3-------3---
G|---0--0-0--0--0-0--0--0-0--0--0-0
D|--4-4--4--4-4--4--4-4--4--4-4--4-   Repeat x8 with drum buildup
A|-0-------2-------5---------------
E|-------------------------3-------


intro guitar two

E|---------------------------
B|---------------------------
G|-44444444-77777777---------
D|-44444444-77777777-55555555 start after the fourth measure and
A|-22222222-55555555-55555555 go four times
E|-------------------33333333
            
Hard to play? Try these video lessons and learn fast. | Correct




comments powered by Disqus
↑ Back to top | Tablatures and chords are parodies/interpretations of the original songs. You may use it for private study, scholarship, research or language learning purposes only