>
 >
Whisper - Soul On Fire

Whisper - Soul On Fire Guitar Tabs

Unsigned - Whisper - Soul On Fire chords, tabs, tablatures, lyrics

Guitar lessons | Add/correct | Request | Top 50 tabs Artists:  A B C D E F G H I J K L M N O P Q R S T U V W X Y Z 0-9

Whisper - Soul On Fire Guitar Tabs – Unsigned

CD, Sheet music, Poster

Do you like Whisper - Soul On Fire? Share with your friends now
Tabs
Tuning: Select a Tuning... ( d  a  d  g  a  d)

this is a song that follows a classical meets middle-eastern style

   Intro-x 2
                        x 2
 d|--------------------------------------------||
 a|--3-------3---3------2-------2---2----------||
 g|------2---------2--------2---------2--------||
 d|----2---2---2-----2----2---2---2-----2------||
 a|--0------------------0----------------------||
 d|--------------------------------------------||

                        x 2
 d|------------------------------------------------||
 a|--0-------0---0-------1-------1---1--1h3p1p0----||
 g|------0---------0---------0---------------------||
 d|----2---2---2-----2-----2---2---2---------------||
 a|--3-------------------3-------------------------||
 d|------------------------------------------------||
                                 
                                   Verse
                                    x 2
 d|-------------------------------------------------------------------||
 a|--0-------0---0------0--------0---0------0--------0---0------------||
 g|------0---------0---------0---------0---------0---------0----------||
 d|----0---0---0-----0-----2---2---2-----2-----2---2---2-----2--------||
 a|---------------------2-------------------3-------------------------||
 d|--3----------------------------------------------------------------||

  cont.
 d|--------------------------||
 a|--1-------1---3-----3-----||
 g|------0---------0---------||
 d|----0---0---------0-------||
 a|--------------------------||
 d|--1-----------3-----------||


 d|-----------------------------------------------------------0~~~~~~~||
 a|--5------5---5------3--------3---3------1------1---1-------0~~~~~~~||
 g|------0--------0---------0---------0--------0--------0-----0~~~~~~~||
 d|----0---0--0-----0-----0---0---0-----0----0---0--0-----0---0~~~~~~~||
 a|-----------------------------------------------------------0~~~~~~~||
 d|--5-----------------3-------------------1------------------0~~~~~~~||

          Interlude
             x 4
 d|--(12)-------------------(7)------------------||
 a|--(12)----7--3--3h5p3----(7)------1-1h3p1p0---||
 g|--(12)--7--------------3-(7)--2-3-------------||
 d|--(12)-------------------(7)------------------||
 a|--(12)-------------------(7)------------------||
 d|--(12)-------------------(7)------------------||
           Repeat Verse
                                Bridge
                                   x 2
 d|-------------------------------------------------------------------||
 a|-------------------------------------------------------------------||
 g|-------------------------------------------------------------------||
 d|-------------------------------------------------------------------||
 a|-----0---0---0---0---0---0---0---0---0---0---0---0---0---0---0---0-||
 d|---0---0---0---0---0---0---0---0---2---2---3---3---5---5---3---3---||

       cont.
 d|-----------------------------------||
 a|-----------------------------------||
 g|-----------------------------------||
 d|-----------------------------------||
 a|----0---0---0---0---0---0---0---0--||
 d|--2---2---3---3---5---5---0---0----||

Repeat Verse

Outro-
              x 4 accelerando
 d|-------------------------------------------------------------------||
 a|----5-------5----5------3--------3-----3------1--------1---1-------||
 g|--------0----------0---------0-----------0---------0---------0-----||
 d|------0---0----0-----0-----0---0---0-------0-----0---0---0-----0---||
 a|-------------------------------------------------------------------||
 d|----5-------------------3---------------------1--------------------||

           cont.
 d|----------------------||
 a|-0-------0---0--------||
 g|-----0---------0------||
 d|---0---0---0-----0----||
 a|----------------------||
 d|-0--------------------||

Fin.





Comments


Popular Unsigned tabs & chords
From Nothing - Distant Memories Bass Tabs
Man With Van - Anagram Of I Ex Pot Nerd Bass Tabs
No Name - No Name Band Bass Tabs
Splat - Caramel Bass Tabs
A Product Of Teen Boredom - Shes Crazy Tabs
Addicted To Nothing - Cover Song #2 Tabs
Asswipes - Tedm Tabs
Dayz Never Done-Shibby Tabs
Disposable Heroes - Wretch Tabs
Lastdown - Why Dont You Care Tabs


Song lyrics



↑ Back to top | Tablatures and chords are parodies/interpretations of the original songs. You may use it for private study, scholarship, research or language learning purposes only
© 2014 AZChords.com Contact us | Privacy policy | DMCA | Add/correct tabs | Request tabs | Top 50 tabs