» » »

Unsigned, Whiplash - What Goes Around Comes Around Tabs (ver.1)

Artists:  A B C D E F G H I J K L M N O P Q R S T U V W X Y Z # 

Whiplash - What Goes Around Comes Around Tabs (ver.1)

Unsigned Tabs
 Rating:
4/5 (4 votes)
Whiplash - What Goes Around Comes Around lessons Tabs too difficult? Try these video lessons and learn fast
                

           RIff A
--------------------------------------------
--------------------------------------------
--------------------------------------------
--4-4-4---4-4-4--------4-4-4----4-4-4-4--7--
--4-4-4---4-4-4--------4-4-4----4-4-4-4--7--
--2-2-2---2-2-2--------2-2-2----2-2-2-2--5--


              Riff B
--------------------------------------------
--------------------------------------------
----------------------2---------------------
--2----2--------------2---------------------
--2----2--------------0---------------------
--0----0--x-x-x-x--3------------------------


            Riff C
--------------------------
--------------------------
--------------------------
---7----10---5-5-4-3-------
---7----10---5-5-4-3-------
---5----8----3-3-2-1-------

solo
--------------------------7h8h9-------7h8h9--------5h6h7----5h6h7----7h8h9---
-----5-6-7-----5-6-7---7-----------7-------------5--------5--------7---------
--7---------7----------------------------------------------------------------

-------------------7-7--------7-7---------7-7--------7-7-----------
----7h8h9---7h8h9------7h8h9-------7h8h9------7h8h9----------------
--7--------------------------------------------------------10-7----

Riff order
A4x
B2x
C4x
A4x
B2x
C4x
solo
C8x
            
Submit corrections

comments powered by Disqus
↑ Back to top | Unsigned Tabs for Whiplash - What Goes Around Comes Around. Lyrics for acoustic guitar and electric guitar. Tablatures and chords are parodies/interpretations of the original songs. You may use it for private study, scholarship, research or language learning purposes only