» » »

Unsigned, What Tabs (ver.1)

Artists:  A B C D E F G H I J K L M N O P Q R S T U V W X Y Z # 

What Tabs (ver.1)

Unsigned Tabs
 Rating:
4/5 (4 votes)
What lessons Tabs too difficult? Try these video lessons and learn fast
1
                intro x2
e-----------------------------------------
b-----------------------------------------
g--------------------2-2------------------
d--------------------2-0--------------2222
a--------------------2-0-7-7/9-0------2222
e--0-1-4-6-7-3-8-5\4-0----------8-7-4-2222
verse 1 x2
e--12-10-7-9-7-5-5-5----------------------
b--------------5-5-5---4-6-9-12-14--------
g--------------5-5-5----------------0-4---
d-----------------------------------0-4---
a-----------------------------------0-4---
e----------------------------------------2
verse 2 x2
e-----------------------------------------
b-----------------------------------------
g-----------------------------------------
d----------------3-5-7/9------------------
a-----------------------------------------
e---7-9-4-55-7/9~--------0-22-3-5-6-7-1-8-
solo
e-----12-12-14-15-12-11-10-12-141214-12-12-
b--0---------------------------------------
g-0----------------------------------------
d0-----------------------------------------
a------------------------------------------
e------------------------------------------
back to verse 2
e-----------------------------------------
b-----------------------------------------
g-----------------------------------------
d----------------3-5-7/9------------------
a-----------------------------------------
e---7-9-4-55-7/9~--------0-22-3-5-6-7-1-8-
verse 3
e----------------------------------------------------------------
b----------------------------------------------------------------
g----------------------------------------------------------------
d-0-2-2-0-5-5-5-9-7-12-12-12-12-9-9-9-7-7-7-5-5-5-5-4-4-4-5-4-2-0
a-0-2-2----------------------------------------------------------
e-0-2-2----------------------------------------------------------
end 
e-------------------
b-------------------
g-------------------
d-2--2--------------
a-0--0--------------
e-0--0--------------
            
Submit corrections

comments powered by Disqus
↑ Back to top | Unsigned Tabs for What. Lyrics for acoustic guitar and electric guitar. 1 Tablatures and chords are parodies/interpretations of the original songs. You may use it for private study, scholarship, research or language learning purposes only