» » »

Unsigned, Wake Up Call - No Choice Tabs (ver.1)

Artists:  A B C D E F G H I J K L M N O P Q R S T U V W X Y Z # 

Wake Up Call - No Choice Tabs (ver.1)

Unsigned Tabs
 Rating:
4/5 (4 votes)
Wake Up Call - No Choice lessons Tabs too difficult? Try these video lessons and learn fast
                Capo on 10th fret (this is only done because I cannot reach the right notes with my little finger whilst standing, if you can you do not need the capo, however the capo does allow more sustain for the open notes so there are some more benefits to it, of course if you cant reach the notes standing, havn't got a capo and cant be bothered to buy one then you're just going to have to play it sat down!)

Verse

|--------------------------------|x6
|--------------------------------|
|--------------------------------|
|--------------------------------|
|2-2-2-2-3-3-3-3-0-0-0-0-1-1-1-1-|
|-0-0-0-0-0-0-0-0-0-0-0-0-0-0-0-0|

Chorus

|-----------------------------------|x2
|-----------------------------------|
|-----------------------------------|
|-----------------------------------|
|22222222 33333333 00000000 11111111|
|00000000 00000000 00000000 00000000|

1st Bridge

|------------------------------------|------------------------------------|
|------------------------------------|------------------------------------|
|------------------------------------|------------------------------------|
|------------------------------------|------------------------------------|
|2--2--2--3--3--3--0--0--0--1--1--1--|2--2--2--3--3--3--0--0--0--1--1--1--|
|0--0--0--0--0--0--0--0--0--0--0--0--|000000000000000000000000000000000000|

2nd Bridge

|------------------------------------|------------------------------------|
|------------------------------------|------------------------------------|
|------------------------------------|------------------------------------|
|------------------------------------|------------------------------------|
|2--2--2--3--3--3--0--0--0--1--1--1--|2--2--2--3--3--3--0--0--0--1--1--1--|
|0--0--0--0--0--0--0--0--0--0--0--0--|0--0--0--0--0--0--0--0--0--0--0--0--|

|------------------------------------|------------------------------------|
|------------------------------------|------------------------------------|
|------------------------------------|------------------------------------|
|------------------------------------|------------------------------------|
|2--2--2--3--3--3--0--0--0--1--1--1--|2--2--2--3--3--3--0--0--0--1--1--1--|
|000000000000000000000000000000000000|000000000000000000000000000000000000|

Song Order
Verse
Chorus
1st Bridge
Chorus
Verse
2nd Bridge

This song is 100% correct. How do I know? I wrote it, thats how! Because you probably haven't heard this before you probably wont get it right, unfortunatelly we haven't recorded this song so I cant send it to you. If you have any queries e-mail me.
            
Submit corrections

comments powered by Disqus
↑ Back to top | Unsigned Tabs for Wake Up Call - No Choice. Lyrics for acoustic guitar and electric guitar. Tablatures and chords are parodies/interpretations of the original songs. You may use it for private study, scholarship, research or language learning purposes only