» » »

Unsigned, Virgin Counterpart - Crazy Plane Bass tabs (ver.1)

Artists:  A B C D E F G H I J K L M N O P Q R S T U V W X Y Z # 

Virgin Counterpart - Crazy Plane Bass tabs (ver.1)

Unsigned Tabs
Rating:
0/5 (0 votes)
Virgin Counterpart - Crazy Plane lessons Tabs too difficult? Try these video lessons and learn fast
                Intro
G
D
A—0000000000000000-2222222222222222-3333333333333333-55555555555555-5
E

Adlib X2
G
D
A
E-1111-1-1-11111111--3333-3-3-33333333-5555-5-5-5555555-5555-5-5-3333h5pulloff3

Verse X4
G
D
A
E-1111111111111111-0000000000000000-5555555555555555-3333333333333333

Pre-chorus
G
D
A
E-1-1-111-3-33-333-0-0-000-5-55-3-33--1111111111111111-33333333333333-3

Chorus
G
D
A-------------------33333333
E-55555555-33333333---------00000000 (stop)-11111111-33333333-55555555-33333333

Adlib 

Harmonizing thing X4
G
D
A----------3-3-3---------------
E-55555555-------11111111-3-3-3

Verse

Pre-Chorus

Chorus

Interlude(X4) All parts
G---9---7-----------------9---------------------
D-----------10--9-10-9---------12----10---9-10-9
A-8---8---8----8-------10---10----10----10------
E----------------------------------------------------

G----------------------------------------------------
D---10---12---14---12-10-12---10---12---14---15-14-12
A-0----0----0----0----------0----0----0----0---------
E----------------------------------------------------

G---9---7-----------------9---------------------
D-----------10--9-10-9---------12----10---9-10-9
A-8---8---8----8-------10---10----10----10------
E----------------------------------------------------

G------------------12------------------------12----12
D---10---12---14------14-12---10---12---14------14---
A-0----0----0----0----------0----0----0----0---------
E----------------------------------------------------

Transition thing
G
D
A
E-1111111111111111-3333333333333333-5555555555555555-7777777777777777
            
Submit corrections

comments powered by Disqus
↑ Back to top | Unsigned Bass for Virgin Counterpart - Crazy Plane. Lyrics for acoustic guitar and electric guitar. Tablatures and chords are parodies/interpretations of the original songs. You may use it for private study, scholarship, research or language learning purposes only