» » »

Unsigned, Vex - Opposites Attract Bass tabs (ver.1)

Artists:  A B C D E F G H I J K L M N O P Q R S T U V W X Y Z # 

Vex - Opposites Attract Bass tabs (ver.1)

Unsigned Tabs
Rating:
0/5 (0 votes)
Vex - Opposites Attract lessons Tabs too difficult? Try these video lessons and learn fast
                OPPOSITES ATRACT  

Intro/pre-chorus: 
D] 
A] -----------------------------------------------------------------3---------3
D] --5-----------5--------3--- ---3---------1---------1--------------565-----565
G] -----787--------787---565------565------343------343---------------------
   

    Chorus:
D]--99--------99--3333---
A]------7777---------------    repeat as needed
D]--------------------------    
G]-------------------------

  Verse:
D]----------------9 10 12 12 12---------------9 8 7 5 5
A] 12 10 9 9 9-------------------12 10 9 9 9 ----------  repeat as needed
D]---------------------------------------------------------- 
G]----------------------------------------------------------
  


    Breakdown:                play slow to fast
D]--999----999--33---
A]-------77---------------    repeat as needed
D]--------------------------    
G]-------------------------



Play all of these parts accordingly to the song

All parts are copy writing by the vex corporation, and all violators will be prosecuted

VEX RULES
            
Submit corrections

comments powered by Disqus
↑ Back to top | Unsigned Bass for Vex - Opposites Attract. Lyrics for acoustic guitar and electric guitar. Tablatures and chords are parodies/interpretations of the original songs. You may use it for private study, scholarship, research or language learning purposes only