» » »

Unsigned, Vedas - Holy Sin Tabs (ver.1)

Artists:  A B C D E F G H I J K L M N O P Q R S T U V W X Y Z # 

Vedas - Holy Sin Tabs (ver.1)

Unsigned Tabs
 Rating:
4/5 (4 votes)
Vedas - Holy Sin lessons Tabs too difficult? Try these video lessons and learn fast
                Status:lyrics exist,main guitar exists as does a bassline-bass doubles guitar  mainly but breaks away a bit in Riff A and solos during Riff C.

Tuning-standard   Play FAST,very FAST

Riff A (play twice)

E-2----------------|-----------------2--
B---2-2---3--------|-------2-3---3-2----
G-------2---3-3----|-----3-----2--------
D---------------3--|-3-2----------------

Bassline:

G-----------------|-----------------2--
D---------0-------|-------2-3---3-2----
A-2---------0-0---|-----3-----2--------
E---2-2-0-------1-|-3-2-----------------

Riff B:

D--------2-3-|------------2235--|-------2345--|----2354---
A--33332-0-1-|-----333322-0013--|-33332-0123--|-32-0132---
E--11110-----|---- 111100-------|-11110-------|-10--------

Play Riff A twice

Play Riff B

Riff C:

Bass solo

Guitar:

D-55555--77--|-5676543-|----------|-55555-7----|-56765-----|-567878-|-8887----
A-33333--555-|-3454321-|-56654323-|-33333-5-55-|-34543-345-|-345656-|-6665544323
E----------3-|---------|-34432101-|---------33-|-------567-|--------|-----322101

Riff B

Riff A twice

Guitar solo

End:
D-3--5--7~
A-5--5--7-
E-5--3--5~
            
Submit corrections

comments powered by Disqus
↑ Back to top | Unsigned Tabs for Vedas - Holy Sin. Lyrics for acoustic guitar and electric guitar. Tablatures and chords are parodies/interpretations of the original songs. You may use it for private study, scholarship, research or language learning purposes only