» » »

Useless Information - Scotch Bass tabs (ver.1)

Artists:  A B C D E F G H I J K L M N O P Q R S T U V W X Y Z # 

Useless Information - Scotch Bass tabs (ver.1)

Unsigned
Rating:
0/5 (0 votes)

Hard to play? Try these video lessons and learn fast.
                Useless Information
Scotch
Bassist Greg Ludwig
Hottest Local Band in Seattle
Best song on DEMO

Everything But SOLO

G--------------------
D--------------------
A-----2h-3p-2-----
E-3-3---------------

Solo

G-----7-5-------------------REPEAT
D---------7-5---------------
A-------------7-5-----------
E-8-8-----------------------                 X 8

G-----7-5-----------------------------
D---------7-5-7-3-5-6-5-7-5-------
A-------------------------------7-5---
E-8-8---------------------------------

CHECK THEM OUT!!!!!

Joel Lewis
            
Hard to play? Try these video lessons and learn fast. | Correct




comments powered by Disqus
↑ Back to top | Tablatures and chords are parodies/interpretations of the original songs. You may use it for private study, scholarship, research or language learning purposes only