» » »

Untitled - Lost Tabs (ver.1)

Artists:  A B C D E F G H I J K L M N O P Q R S T U V W X Y Z # 

Untitled - Lost Tabs (ver.1)

Unsigned
Rating:
0/5 (0 votes)

Hard to play? Try these video lessons and learn fast.
                Intro/Verse
-0-0-3-0-5-0-3-3---0-0-3-0-5-0-3-----------------------------------------------------
Repeat 3 times

Chorus
-----------------------------I-------------------------------------------------------
-----------------------------I-------------------------------------------------------
-2--2---5-5-5--7-7-7-8-8-8-8-I-2--2---5-5-5--8-8-8-7-7-7-7---------------------------
-2--2---5-5-5--7-7-7-8-8-8-8-I-2--2---5-5-5--8-8-8-7-7-7-7---------------------------
-0--0---3-3-3--5-5-5-6-6-6-6-I-0--0---3-3-3--6-6-6-5-5-5-5---------------------------
-----------------------------I-------------------------------------------------------
Repeat 1st part, then,
-7-7-7-8-8-8-8-7-7-7-7-8-8-8-8-------------------------------------------------------
-7-7-7-8-8-8-8-7-7-7-7-8-8-8-8-------------------------------------------------------
-5-5-5-6-6-6-6-5-5-5-5-6-6-6-6-------------------------------------------------------
Bridge - Improvise on A scale
Outtro - Play chorus then:
-2--0-0--2----0----------------------------------------------------------------------
-3--2-2--3----2----------------------------------------------------------------------
-2--2-2--2----2----------------------------------------------------------------------
-0--2-2--0----2----------------------------------------------------------------------
----0-0-------0----------------------------------------------------------------------
Here's the map:
Intro/Verse
Chorus
Verse
Chorus
Bridge
1st 2 bars of
            
Hard to play? Try these video lessons and learn fast. | Correct




comments powered by Disqus
↑ Back to top | Tablatures and chords are parodies/interpretations of the original songs. You may use it for private study, scholarship, research or language learning purposes only