» » »

Untitled Tabs (ver.2)

Artists:  A B C D E F G H I J K L M N O P Q R S T U V W X Y Z # 

Untitled Tabs (ver.2)

Unsigned
Rating:
0/5 (0 votes)

Hard to play? Try these video lessons and learn fast.
                Guitar1
 

Clean
                                                       
E||-------------------------|--------------------------|
B||-------------------------|--------------------------|
G||*------------------------|--------------------------|
D||*-------------5----5--5--|--7--7--7--4--4--4--0--0--|
A||-------------------------|--------------------------|
E||---7----7--7-------------|--------------------------|


                                                      Distortion
                            
------------------------|---------------------------||-------------------------|
------------------------|---------------------------||-------------------------|
------------------------|--------------------------*||*------------------------|
-------------5----5--5--|--7--7--7--0--0--0--4--4--*||*-------------5----5--5--|
------------------------|---------------------------||---7----7--7--5----5--5--|
--7----7--7-------------|---------------------------||---7----7--7-------------|


                                                    
--------------------------|------------------------|
--------------------------|------------------------|
--------------------------|------------------------|
--7--7--7--4--4--4--0--0--|-------------5----5--5--|
--7--7--7--4--4--4--0--0--|--7----7--7--5----5--5--|
--------------------------|--7----7--7-------------|


                           3x                            
---------------------------||---------------------------|
---------------------------||---------------------------|
--------------------------*||*--------------------------|
--7--7--7--0--0--0--4--4--*||*--7--7--7--7--5--5--5--5--|
--7--7--7--0--0--0--4--4---||---7--7--7--7--5--5--5--5--|
---------------------------||---5--5--5--5--3--3--3--3--|


                                                          
------------------------------|--------------------------|
------------------------------|--------------------------|
------------------------------|--------------------------|
--7--7--7--7--12--12--10--10--|--7--7--7--7--5--5--5--5--|
--7--7--7--7--12--12--10--10--|--7--7--7--7--5--5--5--5--|
--5--5--5--5--10--10--8---8---|--5--5--5--5--3--3--3--3--|


                                                         
-----------------------------||-------------------------|
-----------------------------||-------------------------|
----------------------------*||*------------------------|
--7--7--7--7--10--10--8--8--*||*-------------5----5--5--|
--7--7--7--7--10--10--8--8---||-------------------------|
--5--5--5--5--8---8---6--6---||---7----7--7-------------|


                                                    
--------------------------|------------------------|
--------------------------|------------------------|
--------------------------|------------------------|
--7--7--7--4--4--4--0--0--|-------------5----5--5--|
--------------------------|------------------------|
--------------------------|--7----7--7-------------|


                           3x           3x                            
---------------------------||-----|-----||---------------------------|
---------------------------||-----|-----||---------------------------|
--------------------------*||*----|----*||*--------------------------|
--7--7--7--0--0--0--4--4--*||*----|----*||*--7--7--7--7--5--5--5--5--|
---------------------------||-----|-----||---7--7--7--7--5--5--5--5--|
---------------------------||-----|-----||---5--5--5--5--3--3--3--3--|


                                                          
------------------------------|--------------------------|
------------------------------|--------------------------|
------------------------------|--------------------------|
--7--7--7--7--12--12--10--10--|--7--7--7--7--5--5--5--5--|
--7--7--7--7--12--12--10--10--|--7--7--7--7--5--5--5--5--|
--5--5--5--5--10--10--8---8---|--5--5--5--5--3--3--3--3--|


                             5x      4x
-----------------------------||-xxxxx-----||
-----------------------------||-xxxxx-----||
----------------------------*||*xxxxx----*||
--7--7--7--7--10--10--8--8--*||*xxxxx----*||
--7--7--7--7--10--10--8--8---||-xxxxx-----||
--5--5--5--5--8---8---6--6---||-xxxxx-----||
            
Hard to play? Try these video lessons and learn fast. | Correct




comments powered by Disqus
↑ Back to top | Tablatures and chords are parodies/interpretations of the original songs. You may use it for private study, scholarship, research or language learning purposes only