» » »

Unsigned, Untitled Tabs (ver.1)

Artists:  A B C D E F G H I J K L M N O P Q R S T U V W X Y Z # 

Untitled Tabs (ver.1)

Unsigned Tabs
Rating:
0/5 (0 votes)
Untitled lessons Tabs too difficult? Try these video lessons and learn fast
                b = bend
* = let ring
~ = vibrato
/ = slide

Standard Tuning



intro:

E ------------------------------------------------------------------------|
B ------------------------------------------------------------------------|
G ------------------------------------------------------------------------|
D -3-3-3/5/3--3-3-3/5/3--3-3-3/7--7-7--7-7-7/8--8-8-8/10--10-10-|
A -3-3-3/5/3--3-3-3/5/3--3-3-3/7--7-7--7-7-7/8--8-8-8/10--10-10-|
E -------------------------------------5-5-5/6--6-6 -6 /8----8--8-|

E---------------------------------------------------|
B-------------12-14*---------------12-14---------|
G---------12---------13-12-----12--------13-12--|
D-10/12---------------------12--------------------|
A-10/12--------------------------------------------|
E--8/10--------------------------------------------|

verse:

E --------------------------                   E -------------------------
B ---------------------------                  B -------------------------
G ---------------------------    X2 then   G -------------------------
D -12-12-10-10-9-9-11-11-                 D -------------------------
A -12-12-10-10-9-9-11-11-                 A ---------12b-10-11b----
E -10-10 --8--8-7-7--9--9-                  E -10-11---------------9~

E --------------------------                   E -------------------------
B ---------------------------                  B -------------------------
G ---------------------------    X2 then   G -------------------------
D -12-12-10-10-9-9-11-11-                 D -------------------------
A -12-12-10-10-9-9-11-11-                 A ---------12b-10-11b----
E -10-10 --8--8-7-7--9--9-                  E -10-11---------------9~

E --------------------------
B --------------------------
G --------------------------
D --------------------------
A --------12b-10-11b------
E -10-11--------------9/12-


No chorus yet...
            

comments powered by Disqus
↑ Back to top | Unsigned Tabs for Untitled. Lyrics for acoustic guitar and electric guitar. Tablatures and chords are parodies/interpretations of the original songs. You may use it for private study, scholarship, research or language learning purposes only