>
 >
Unspoken - Fastforward

Unspoken - Fastforward Guitar Tabs

Unsigned - Unspoken - Fastforward chords, tabs, tablatures, lyrics

Guitar lessons | Add/correct | Request | Top 50 tabs Artists:  A B C D E F G H I J K L M N O P Q R S T U V W X Y Z 0-9

Unspoken - Fastforward Guitar Tabs – Unsigned

CD, Sheet music, Poster

Do you like Unspoken - Fastforward? Share with your friends now
Tabs
Tuning: Standard

Intro
Guitar 1
e-----------------
B-2-2-1-1-1-1-O-O-
G--2-2-2-2-O-O-O-O
D-----------------(x8)
A-----------------
E-----------------
Guitar 2 (Start after guitar 1 is played four times)
e-------------
B-------------
G-------55----
D-77-33-55-55-
A-77-33-33-55-
E-55-11----33-(x4)
Verses
Guitar 1 
e---------------------------
B---------------------------
G---------------------------
D-77------------------------(x4)
A-77--2-3-2-O-2-3-5-3-2-3-2-
E-55-----------------------3
Guitar 2
e-------------
B-------------
G------55-----
D-77---55---55(x4)
A-77---33---55
E-55--------33
Pre-Chorus
Guitar 1
e--------------------
B--------------------
G-----------5555-----
D-7777-3333-5555-5555(x2)
A-7777-3333-3333-5555
E-5555-1111------3333
pm .... .... .... ...
Chorus
Guitar 1 & 2
e--------------------
B--------------------
G------5555------7777
D-7777-5555-5555-7777(x4)
A-7777-3333-5555-5555
E-5555------3333-----
Pre-Verses
Guitar 1 & 2
e---------------
B---------------
G-------55-77-55
D-77-55-55-77-55(x2)
A-77-55-33-55-33
E-55-33---------
Verses
Guitar 1 
e---------------------------
B---------------------------
G---------------------------
D-77------------------------(x4)
A-77--2-3-2-O-2-3-5-3-2-3-2-
E-55-----------------------3
Guitar 2
e-------------
B-------------
G------55-----
D-77---55---55(x4)
A-77---33---55
E-55--------33
Pre-Chorus
Guitar 1
e--------------------
B--------------------
G-----------5555-----
D-7777-3333-5555-5555(x2)
A-7777-3333-3333-5555
E-5555-1111------3333
pm .... .... .... ...
Chorus
Guitar 1 & 2
e--------------------
B--------------------
G------5555------7777
D-7777-5555-5555-7777(x4)
A-7777-3333-5555-5555
E-5555------3333-----
Bridge
Guitar 1
e-----------
B-----------
G-------5---
D-7--3--5--5(x4)
A-7--3--3--5
E-5--1-----3
Guitar 2 (start after guitar 1 plays once)
e------------------------------
B--------1-3-1-O-------3-5-3-1-
G-O-2-O-2-------O-2-O-2-------O
D------------------------------(X3)
A------------------------------
E------------------------------
pm.............................
Ending
Guitar 1
e--------------------
B--------------------
G-----------5555-----
D-7777-3333-5555-5555(x4)
A-7777-3333-3333-5555
E-5555-1111------3333
Guitar 2
e------------------------------
B--------1-3-1-O-------3-5-3-1-
G-O-2-O-2-------O-2-O-2-------O(end on 2)
D------------------------------(X4)
A------------------------------
E------------------------------





Comments


Popular Unsigned tabs & chords
Notu - Just Those Things Bass Tabs
Nuclear Noodle - Wrong Time Bass Tabs
Pilot 101 - Wasting Time Bass Tabs
Waiting For A Name Bass Tabs
Alacrity-Drunk Song Tabs
Death-Wish Burn The Bible Tabs
Deathstruction- For You Tabs
Hardcore Heros - The End Tabs
Haze- Hell Tabs
In The Line Of Fire - Sorry Tabs


Song lyrics



↑ Back to top | Tablatures and chords are parodies/interpretations of the original songs. You may use it for private study, scholarship, research or language learning purposes only
© 2014 AZChords.com Contact us | Privacy policy | DMCA | Add/correct tabs | Request tabs | Top 50 tabs