» » »

Unsigned, Unknown - We Hate Nerds Tabs (ver.1)

Artists:  A B C D E F G H I J K L M N O P Q R S T U V W X Y Z # 

Unknown - We Hate Nerds Tabs (ver.1)

Unsigned Tabs
 Rating:
4/5 (4 votes)
Unknown - We Hate Nerds lessons Tabs too difficult? Try these video lessons and learn fast
1
                (We Hate Nerds)


E---------------------------------------------------------------------
B---------------------------------------------------------------------
G---------------------------------------------------------------------
D-----7--7------5-5-----7-----------7--7------5-5-----7---------------
A-----5--5------3-3-----5-----------5--5------3-3-----5---------------
E---------------------------------------------------------------------
   Nerds Nerds We Hate Nerds      Nerds Nerds Nana Nerds


E---------------------------------------------------------------------
B---------------------------------------------------------------------
G---------------------------------------------------------------------
D-----9--9------7-7-----9-----------9--9------7-7-----9---------------
A-----7--7------5-5-----7-----------7--7------5-5-----7---------------
E---------------------------------------------------------------------
 Nerds Nerds We Hate Nerds         Nerds Nerds We Hate Nerds

  Scale Up then Down
E----8-5---------------------------------------------5-8--------------------
B---------8-5------------------------------------5-7------------------------
G-------------7-5----------------------------5-7----------------------------
D-----------------7-5--------------------5-7--------------------------------
A---------------------7-5------------5-7------------------------------------
E-------------- ----------8--5--5--8------------------------------------




E---------------------------------------------------------------------
B---------------------------------------------------------------------
G---------------------------------------------------------------------
D-----7--7------5-5-----7-----------7--7------5-5-----7---------------
A-----5--5------3-3-----5-----------5--5------3-3-----5---------------
E---------------------------------------------------------------------
     Nerds Nerds We Hate Nerds     Nerds Nerds We Hate Nerds


E---------------------------------------------------------------------
B---------------------------------------------------------------------
G---------------------------------------------------------------------
D-----9--9------7-7-----5-----------9--9------7-7-----5---------------
A-----7--7------5-5-----3-----------7--7------5-5-----3---------------
E---------------------------------------------------------------------
     Nerds Nerds We Hate Nerds      Nerds Nerds We Hate Nerds



E---------------------------------------------------------------------
B---------------------------------------------------------------------
G---------------------------------------------------------------------
D--------9----------7------------5-5----5-5---7-----------------------
A--------7----------5------------5-5----3-3---5-----------------------
E---------------------------------------------------------------------
                                 Nerds Nerds We Hate Nerds
            
Submit corrections

comments powered by Disqus
↑ Back to top | Unsigned Tabs for Unknown - We Hate Nerds. Lyrics for acoustic guitar and electric guitar. 1 Tablatures and chords are parodies/interpretations of the original songs. You may use it for private study, scholarship, research or language learning purposes only