» » »

Unknown - Twinkle Twinkle Little Star Tabs (ver.1)

Artists:  A B C D E F G H I J K L M N O P Q R S T U V W X Y Z # 

Unknown - Twinkle Twinkle Little Star Tabs (ver.1)

Unsigned
Rating:
0/5 (0 votes)

Hard to play? Try these video lessons and learn fast.
                This sounds really sweet if  you play the whole thing using just the bottom string first, then palm muted and then using power cords. I’ll leave it up to you…..

e-0-0-7-7-9-9-7-5-5-4-4-2-2-0-7-7-5-5-4-4-2-7-7-5-5-4-4-2-0-0-7-7-9-9-7-5-5-4-4-2-2-0
B---------------------------------------------------------------------------------------------------------
G---------------------------------------------------------------------------------------------------------
D---------------------------------------------------------------------------------------------------------
A---------------------------------------------------------------------------------------------------------
E---------------------------------------------------------------------------------------------------------

Then Palm Mute

e----------------------------------------------------------------------------------------------------------
B---------------------------------------------------------------------------------------------------------
G---------------------------------------------------------------------------------------------------------
D-0-0-9-9-11-11-9-7-7-6-6-4-4-0-9-9-7-7-6-6-4-9-9-7-7-6-6-4-0-0-9-9-11-11-9-7-7-6-6-4-4-2
A-0-0-9-9-11-11-9-7-7-6-6-4-4-0-9-9-7-7-6-6-4-9-9-7-7-6-6-4-0-0-9-9-11-11-9-7-7-6-6-4-4-2
E-0-0-7-7-9-9-7-5-5-4-4-2-2-0-7-7-5-5-4-4-2-7-7-5-5-4-4-2-0-0-7-7-9-9-7-5-5-4-4-2-2-0


Then play the above using distortion if you have it, if not, turn the tone on your amp all the way down, the volume all the way up and the tube all the way up. Enjoy the tab….believe me, its very amusing when you’re drunk or otherwise.
            
Hard to play? Try these video lessons and learn fast. | Correct




comments powered by Disqus
↑ Back to top | Tablatures and chords are parodies/interpretations of the original songs. You may use it for private study, scholarship, research or language learning purposes only