» » »

Unknown - The National Anthem Tabs (ver.1)

Artists:  A B C D E F G H I J K L M N O P Q R S T U V W X Y Z # 

Unknown - The National Anthem Tabs (ver.1)

Unsigned
Rating:
0/5 (0 votes)

Hard to play? Try these video lessons and learn fast.
                This tab is 100% correct. You should know the rhythm. Tab by jbilotti.

E--0-------0--5--9--7--5---------0--0--9--7--5--4--2--4--5--5--0--------------
B----2---2---------------2--4--5---------------------------------2------------
G------2-----------------------------------------------------------2----------

E--9--9--9--10--12--12--10--9--7--9--10--10---10--9--7--5--4---2--4--5--------
B----------------------------------------------------------------------2--4--5
G-----------------------------------------------------------------------------

E--0--5--5--5--4--2--2--2--7--10--9--7--5--5--4-------------------------------
B-----------------------------------------------------------------------------
G-----------------------------------------------------------------------------

E--0--0--5--7--9--10--12---5--7--9--10---7--5---------------------------------
B-----------------------------------------------------------------------------
G-----------------------------------------------------------------------------
            
Hard to play? Try these video lessons and learn fast. | Correct




comments powered by Disqus
↑ Back to top | Tablatures and chords are parodies/interpretations of the original songs. You may use it for private study, scholarship, research or language learning purposes only