» » »

Unknown - Spider Tabs (ver.1)

Artists:  A B C D E F G H I J K L M N O P Q R S T U V W X Y Z # 

Unknown - Spider Tabs (ver.1)

Unsigned
Rating:
0/5 (0 votes)

Hard to play? Try these video lessons and learn fast.
                -2------
-3-2----
-2-2-111
---2-222
-----222
--------
Then...
------------------------------
------------------------------
------------------------------
----------------12-14-----12--
-14-14-14-12-14------12-14--14
-12-12-12---------------------

Solo
-540-540-750-750----------------------------  ---- 
----------------79-79-10-9-10-12-10-9-7-9-10  -16^ 
--------------------------------------------  ---- 
--------------------------------------------  ----
--------------------------------------------  ----
--------------------------------------------X2----
Outro
--------------
--------------
--------------
----33-----555
-33-11-555-333
-11----333----
            
Hard to play? Try these video lessons and learn fast. | Correct




comments powered by Disqus
↑ Back to top | Tablatures and chords are parodies/interpretations of the original songs. You may use it for private study, scholarship, research or language learning purposes only