» » »

Unknown - Simple Blues Tabs (ver.1)

Artists:  A B C D E F G H I J K L M N O P Q R S T U V W X Y Z # 

Unknown - Simple Blues Tabs (ver.1)

Unsigned
Rating:
0/5 (0 votes)

Tabs too difficult? Try these video lessons and learn fast.
                (Riff)
this is a simple blues riff that my friend paul taught me      here goes.........


   ----------------------------------------------------------------------------------   ----------------------------------------------------------------------------------   ----------------------------------------------------------------------------------
   --------------------------------------2-2-4-4--2-2-4-4--2-2-4-4--2-2-4-4---------
   --2-2-4-4--2-2-4-4--2-2-4-4--2-2-4-4--0-0-0-0--0-0-0-0--0-0-0-0--0-0-0-0----------
   --0-0-0-0--0-0-0-0--0-0-0-0--0-0-0-0----------------------------------------------

   ----------------------------------------------------------------------------------
   ----------------------------------------------------------------------------------
   ----------------------------------------------------------------------------------
   --------------------------------------4-4-6-6--4-4-6-6--4-4-6-6--4-4-6-6----------
   --2-2-4-4--2-2-4-4--2-2-4-4--2-2-4-4--2-2-2-2--2-2-2-2--2-2-2-2--2-2-2-2----------
   --0-0-0-0--0-0-0-0--0-0-0-0--0-0-0-0----------------------------------------------

   ----------------------------------------------------------------------------------
   ----------------------------------------------------------------------------------
   ----------------------------------------------------------------------------------
   --2-2-4-4--2-2-4-4--2-2-4-4--2-2-4-4----------------------------------------------
   --0-0-0-0--0-0-0-0--0-0-0-0--0-0-0-0--2-2-4-4--2-2-4-4--2-2-4-4--2-2-4-4----------
   --------------------------------------0-0-0-0--0-0-0-0--0-0-0-0--0-0-0-0----------

           that's it, repeat it a couple of times and throw in a couple of surprises
    and that's it.


                                               -steve (guitarman69)
            
Tabs too difficult? Try these video lessons and learn fast.


comments powered by Disqus
↑ Back to top | Tablatures and chords are parodies/interpretations of the original songs. You may use it for private study, scholarship, research or language learning purposes only