» » »

Unknown - Roger And Travis Tabs (ver.1)

Artists:  A B C D E F G H I J K L M N O P Q R S T U V W X Y Z # 

Unknown - Roger And Travis Tabs (ver.1)

Unsigned
Rating:
0/5 (0 votes)

Hard to play? Try these video lessons and learn fast.
                | -0-1-3------2-1/14v---------------------------------19\1/5------------------2/17v----------------play throughout except solo
|--------3-2----------------6/3-------------13-------------------------13v/5----------------------------
|-------------2------------------------------------------------------------------------------------------------
|------------------------------------17v-----------------------------------------------------------------------
|---------------------------------------------------------------------------------------------------------------
|---------------------------------------------------------------------------------------------------------------

SOLO
|--2------7v----------------------2/5v------------6------2----------------3------5-6-------------2v------
|------6---------------1/19/7------------5v------------------2v---------------------------6----------------
|------------------------------------------------------------------------6/7v-------------------------------3v-
|-----------------3v-----------------------------2--------------------------------19--------------7-----------
|-----------------------------------------------------------------------------------------------------------------
|-----------------------------------------------------------------------------------------------------------------

Here you have it, It took me about 3 days to get it down right so please rate this tab,
Thanx
            
Hard to play? Try these video lessons and learn fast. | Correct




comments powered by Disqus
↑ Back to top | Tablatures and chords are parodies/interpretations of the original songs. You may use it for private study, scholarship, research or language learning purposes only