» » »

Unsigned, Unknown - Riffs Tabs (ver.1)

Artists:  A B C D E F G H I J K L M N O P Q R S T U V W X Y Z # 

Unknown - Riffs Tabs (ver.1)

Unsigned Tabs
Rating:
0/5 (0 votes)
Hard to play? Try these video lessons and learn fast.
                e|------------------------------------------------------------------------------|
B|------------------------------------------------------------------------------|
G|------------------------------------------------------------------------------|
D|-------------4-----------------------------------2-2-3-3----------------------|
A|-------5-4-0-2-------------7-7-------------------2-2-3-3-------2-3-5-3h5p3----|
E|-0-0-0-3-2-----3-3-3-2-2-2-5-5-5-5-5-3-3-3-2-2-2-0-0-1-1-2-3-5----------------|

e|------------------------------------------------------------------------------|
B|------------------------------------------------------------------------------|
G|------------------------------------------------------------------------------|
D|-----4-----4-----4-2-0---------------------------------------------0h2--------|
A|-2-2-2-2-2-2-2-2-------3-2-0-------5-5-4-4-2-2-----2-----2-----0h2------------|
E|-----------------------------3-2-0-3-3-2-2-0-0-2-2-0-2-2-0-0h2----------------|
            

comments powered by Disqus
↑ Back to top | Unsigned Tabs for Unknown - Riffs. Lyrics for acoustic guitar and electric guitar. Tablatures and chords are parodies/interpretations of the original songs. You may use it for private study, scholarship, research or language learning purposes only