» » »

Unknown - Pshyco Tabs (ver.1)

Artists:  A B C D E F G H I J K L M N O P Q R S T U V W X Y Z # 

Unknown - Pshyco Tabs (ver.1)

Unsigned
Rating:
0/5 (0 votes)

Hard to play? Try these video lessons and learn fast.
                

Intro play it 3 times
Put a palm mute anywhere in between the chords or put it wherever it sounds good.

E---------------------------------------------------------------
B-------9-9-------------------------9-9-------------------------
G-9-9---9-9---9-9----11-11---9-9----9-9----9-9-9-9--------------
D-9-9---7-7---9-9----11-11---9-9----7-7----9-9-9-9----9----7----
A-7-7---------7-7----9---9---7-7-----------7-7-7-7----9----7----
E-----------------------------------------------------7----5----



This is what you play about 12 times when the person is singing 

E-------------------------------------------------
B--------9-9--------------------------------------
G-9-9----9-9---- X 2-----9-9----11-11----X 2------
D-9-9----7-7-------------9-9----11-11-------------
A-7-7--------------------7-7----9---9-------------
E-------------------------------------------------


Then you play the intro 2 times 
                        
E----------------------------------------------------------------
B-------9-9--------------------------9-9-------------------------
G-9-9---9-9---9-9----11-11-- -9-9----9-9-----9-9-9-9-------------
D-9-9---7-7---9-9----11-11-- -9-9----7-7-----9-9-9-9----9----7---
A-7-7---------7-7----9---9----7-7------------7-7-7-7----9----7---
E-------------------------------------------------------7----5---


Then you play this 5 more times when the person is singing

E------------------------------------------------
B--------9-9-------------------------------------
G-9-9----9-9---- X 2-----9-9----11-11----X 2-----
D-9-9----7-7-------------9-9----11-11------------
A-7-7--------------------7-7----9---9------------
E------------------------------------------------

This is the last part let it ring play it 2 times

E-------------------------------------------------------------
B-------9-9-------------------------9-9-----------------------
G-9-9---9-9---9-9----11-11---9-9----9-9----9-9-9-9------------
D-9-9---7-7---9-9----11-11---9-9----7-7----9-9-9-9----9----7~~
A-7-7---------7-7----9---9---7-7-----------7-7-7-7----9----7~~
E-----------------------------------------------------7----5~~


C ya
            
Hard to play? Try these video lessons and learn fast. | Correct




comments powered by Disqus
↑ Back to top | Tablatures and chords are parodies/interpretations of the original songs. You may use it for private study, scholarship, research or language learning purposes only