>
 >
Unknown - Phirus

Unknown - Phirus Guitar Tabs

Unsigned - Unknown - Phirus chords, tabs, tablatures, lyrics

Guitar lessons | Add/correct | Request | Top 50 tabs Artists:  A B C D E F G H I J K L M N O P Q R S T U V W X Y Z 0-9

Unknown - Phirus Guitar Tabs – Unsigned

CD, Sheet music, Poster

Do you like Unknown - Phirus? Share with your friends now
Tabs
Song name:- Phirus- We have not got a name for it yet 

Intro:  

e|---------------------------------------------------------------------------
b|---------------------------------------------------------------------------  x2
g|---9----------------------------------------------------------------------
d|---9-~---9-----10----9-----------------------9-----------------------
a|---7-----9~----10~---9~----------------------9~------------
e|----------7-------9-----7-----------------------7----------------------


    
  Verse: 1

 e|-------------------------------------------------------------------------------------------------------------
 b|--------------------------------------------------------------------------------------------------------------
 g|---99999999--------------------------------------------------------------------------------------------                
d|-99999999--99999999--101010101010101010-----7777-------9999----------
 a|---77777777-99999999--101010101010101010-----7777-------9999---------
 e|--------------------77777777----9--9--9--9--9--9--9--9--9---- 5555-------7777----------




   Chorus:


 e|---------------------------------
 b|---------------------------------
 g|--9999---10101010-------------------------------------
 d|--9999---10101010----10101010-------9999--         
 a|--7777-----9--9 -9--9----10101010-------9999---
 e|-----------------------------------9--9--9--9-------7777---

       Verse:  2

 e|-----------------------------
 b|------------------------------
 g|------------------------99999999-----------------------------------
 d|---77777777-----99999999----99999999----77--666
 a|---77777777-----77777777----99999999----77--666
 e|---55555555-------------------------77777777----55--444

    
     Breakdown
 e|---------------------------------------
 b|---------------------------------------
 g|---9999----------------------------
 d|---9999---9999---10101010------9999-------
 a|---7777---9999---10101010------9999------
 e|--------------7777-----9--9--9--9------7777----


 
 
       Outro:  (same as Intro)



      *******************Order************************
		
			Intro         x2 
			verse 1    x2
         		            verse 2    x2
			chorus     x4
			verse 1    x2
			verse2     x2
			chorus     x4
			breakdown  x2
			chorus     x4
			outro        x1

        
If you have any questions or comment the tab e-mail me





Comments


Popular Unsigned tabs & chords
7 Unwanted Days - Breaking Free Bass Tabs
Lithium - Lazy Boy Bass Tabs
Vertical Instinct - Chased Bass Tabs
Arrow - Ego Tabs
Bloodshed/Hate Tabs
Blues Tabs
Catjab-Twinkle Twinkle Little Star Tabs
Condemed Tabs
House Arrest - Trapped Inside Tabs
J.P.F - Whats Mine Is Mine Tabs


Song lyrics



↑ Back to top | Tablatures and chords are parodies/interpretations of the original songs. You may use it for private study, scholarship, research or language learning purposes only
© 2014 AZChords.com Contact us | Privacy policy | DMCA | Add/correct tabs | Request tabs | Top 50 tabs