» » »

Unsigned, Unknown - Pakistan National Anthem Tabs (ver.1)

Artists:  A B C D E F G H I J K L M N O P Q R S T U V W X Y Z # 

Unknown - Pakistan National Anthem Tabs (ver.1)

Unsigned Tabs
 Rating:
4/5 (4 votes)
Unknown - Pakistan National Anthem lessons Tabs too difficult? Try these video lessons and learn fast
1
                Pakistan National Anthem


Tuning
Lead:   standard EADGBe, for all tab
Rhythm: standard EADGBe, for all fills and chords

Chords used:
*  EADGBe
A  x02220
D  xx0232
E  022100
Am x02210
Dm xx0321
Em 022000

Articulation:
Hammer On: h
Pull Off : p
Hold Note: ~

Fill 1:
e-|---------|
B-|---------|
G-|--9-99~--|
D-|---------|
A-|---------|
E-|---------|

Fill 2:
e-|--------------------|
B-|--------------------|
G-|--------------6-----|
D-|--9--7--9-7-9---9~--|
A-|--------------------|
E-|--------------------|

Verse 1:
     A       D   A      A       D      E      A      D       A      A   D   E
e-|------------------|---------------------|---------------------|-------------|
B-|----------7-------|--10-10---7----------|-------------7h9-10--|--9p7--------|
G-|----6-7h9---7h9~--|-------9-9--7--------|--6-67---7h9---------|------9p7-6--|
D-|--7---------------|--------------11p9~--|-------9-------------|-------------|
A-|------------------|---------------------|---------------------|-------------|
E-|------------------|---------------------|---------------------|-------------|

     A       D    E A
e-|---------------------|
B-|---------------------|
G-|--9-9p7-6-7-76-------|
D-|---------------9p7~--|
A-|---------------------|
E-|---------------------|

Verse 2:
     Am    Dm          Am      Em    Am   Dm           Am      Am Dm Em    Am
e-|--------10---------------|-----------10h12-12-13-15h17~--|--12-13-15-15-17--|
B-|--10-12----13-12-10-10~--|--12-12-13---------------------|------------------|
G-|-------------------------|-------------------------------|------------------|
D-|-------------------------|-------------------------------|------------------|
A-|-------------------------|-------------------------------|------------------|
E-|-------------------------|-------------------------------|------------------|

     Am          Em    Am     A       D    E A
e-|--19-20-19-17-19-15-17--|---------------------|
B-|------------------------|---------------------|
G-|------------------------|--9-9p7-6-7-76-------|
D-|------------------------|---------------9p7~--|
A-|------------------------|---------------------|
E-|------------------------|---------------------|

Verse 3:
     A       D   A  f1  A       D      E  f2  A      D       A      A   D   E
e-|------------------|---------------------|---------------------|-------------|
B-|----------7-------|--10-10---7----------|-------------7h9-10--|--9p7--------|
G-|----6-7h9---7h9~--|-------9-9--7--------|--6-67---7h9---------|------9p7-6--|
D-|--7---------------|--------------11p9~--|-------9-------------|-------------|
A-|------------------|---------------------|---------------------|-------------|
E-|------------------|---------------------|---------------------|-------------|

     A          D       E  A
e-|--12-12p10-9h10-10p9---------|
B-|---------------------12-10~--|
G-|-----------------------------|
D-|-----------------------------|
A-|-----------------------------|
E-|-----------------------------|

This may sound similar to Junoon's version.
            
Submit corrections

comments powered by Disqus
↑ Back to top | Unsigned Tabs for Unknown - Pakistan National Anthem. Lyrics for acoustic guitar and electric guitar. 1 Tablatures and chords are parodies/interpretations of the original songs. You may use it for private study, scholarship, research or language learning purposes only