» » »

Unsigned, Unknown - Overdosed At Xmas Tabs (ver.1)

Artists:  A B C D E F G H I J K L M N O P Q R S T U V W X Y Z # 

Unknown - Overdosed At Xmas Tabs (ver.1)

Unsigned Tabs
 Rating:
4/5 (4 votes)
Unknown - Overdosed At Xmas lessons Tabs too difficult? Try these video lessons and learn fast
                INTRO
E:--------------------------------------------------------------------------------------------------:
B:--------------------------------------------------------------------------------------------------:
G:----------------1010101010--9-9-9-9-9-9-9-----------------1010101010--12-12-12-12-12-12-12--9:----:
D:-7-7-7-7-7-7-7--1010101010--9-9-9-9-9-9-9--7-7-7-7-7-7-7--1010101010--12-12-12-12-12-12-12--9:----:
A:-7-7-7-7-7-7-7--8-8-8-8-8---7-7-7-7-7-7-7--7-7-7-7-7-7-7--8-8-8-8-8---10-10-10-10-10-10-10--7:----:
E:-5-5-5-5-5-5-5-----------------------------5-5-5-5-5-5-5------------------------------------------:

RIFF
E:-----------------------------------------------------:
B:-----------------------------------------------------:
G:--------------------------------5--------------------:
D:---------7-5----------------7-5---5------------------:X2
A:---7-5-7-----5-7-7----7-5-7----------7---------------:
E:-5------------------5--------------------------------:

CHORUS
E:-------------------------------------------------------------------------------------------------:
B:-------------------------------------------------------------------------------------------------:
G:-7-7-7--9-9-9-------------7-7-7--9-9-9--12-12--9--7-7-7--9-9-9-----------------------------------:
E:-7-7-7--9-9-9--7-7-7-7-7--7-7-7--9-9-9--12-12--9--7-7-7--9-9-9--7-7-7-7-7--5-5-5-5-5--7-7-7-7-7--:
A:-5-5-5--7-7-7--7-7-7-7-7--5-5-5--7-7-7--10-10--7--5-5-5--7-7-7--7-7-7-7-7--5-5-5-5-5--7-7-7-7-7--:
E:---------------5-5-5-5-5----------------------------------------5-5-5-5-5--3-3-3-3-3--5-5-5-5-5--:

this is one of my band songs , i have already put a copyright on it so dont steal it
            
Submit corrections

comments powered by Disqus
↑ Back to top | Unsigned Tabs for Unknown - Overdosed At Xmas. Lyrics for acoustic guitar and electric guitar. Tablatures and chords are parodies/interpretations of the original songs. You may use it for private study, scholarship, research or language learning purposes only