>
 >
Unknown Element-In My Dreams

Unknown Element-In My Dreams Guitar Tabs

Unsigned - Unknown Element-In My Dreams chords, tabs, tablatures, lyrics

Guitar lessons | Add/correct | Request | Top 50 tabs Artists:  A B C D E F G H I J K L M N O P Q R S T U V W X Y Z 0-9

Unknown Element-In My Dreams Guitar Tabs – Unsigned

CD, Sheet music, Poster

Do you like Unknown Element-In My Dreams? Share with your friends now
Tabs
Intro:
	Guitar 1
|-------------------------|-------------------0-----|-------------------------|-------------------0-----| 
|-------------------0-----|-------------------------|-------------------0-----|-------------------------| 
|-------4---------4---4---|-------4---------4-----4-|-------4---------4---4---|-------4---------4-----4-| 
|-----5---5-----5-------5-|-----5---5-----5-----5---|-----5---5-----5-------5-|-----5---5-----5-----5---| 
|---0-------0-0-----------|---0-------0-0-----------|---0-------0-0-----------|---0-------0-0-----------| 
|-3-----------------------|-3-----------------------|-3-----------------------|-3-----------------------|
	Guitar 2
|-------------------------|-------------------------|-------------------------|-------------------------|
|-------------------------|-------------------------|-------------------------|-------------------------|
|-------------------------|-------------------------|-------------------------|-------------------------|
|-------------------------|-------------------------|-------------------------|-------------------------|
|-------------------------|-------------------------|-------------------------|-------------------5---5-|
|-------------------------|-------------------------|-------------------------|-------------------3---3-|

	Guitar 1
|-------------------------|-------------------0-----|-------------------------|-------------------------|
|-------------------0-----|-------------------------|-------------------0-----|-------------------------|
|-------4---------4---4---|-------4---------4-----4-|-------4---------4---4---|-------------------------|
|-----5---5-----5-------5-|-----5---5-----5-----5---|-----5---5-----5-------5-|-------------------------|
|---0-------0-0-----------|---0-------0-0-----------|---0-------0-0-----------|-5-5-5-55555-7-7-7-77777-|
|-3-----------------------|-3-----------------------|-3-----------------------|-3-3-3-33333-5-5-5-55555-|
	Guitar 2
|-------------------------|-------------------------|-------------------------|-------------------------|
|-------------------------|-------------------------|-------------------------|-------------------------|
|-------------------------|-------------------------|-------------------------|-------------------------|
|-------------------------|-------------------------|-------------------------|-------------------------|
|-7-7---5-5---9-9-9-4/6-2-|-7-7---5-5---9-9-9-4/6---|-7-7---5-5---9-9-9-4/6-2-|-5-5-5-55555-7-7-7-77777-|
|-5-5---3-3---7-7-7-2/4-0-|-5-5---3-3---7-7-7-2/4---|-5-5---3-3---7-7-7-2/4-0-|-3-3-3-33333-5-5-5-55555-|

	Guitar 1
|-------------------------|-------------------------|-------------------------|-------------------------|
|-------------------------|-------------------------|-------------------------|-------------------------|
|-------------------------|-------------------------|-------------------------|-------------------------|
|-------------------------|-------------------------|-------------------------|-------------------------|
|-7-777-5-555-9-9-9-4/6-2-|-7-777-5-555-9-9-9-4/6---|-7-777-5-555-9-9-9-4/6-2-|-5-5-5-55555-7-7-7-77777-|
|-5-555-3-333-7-7-7-2/4-0-|-5-555-3-333-7-7-7-2/4---|-5-555-3-333-7-7-7-2/4-0-|-3-3-3-33333-5-5-5-55555-|
	Guitar 2
|-------------------------|-------------------------|-------------------------|-------------------------|
|-------------------------|-------------------------|-------------------------|-------------------------|
|-------------------------|-------------------------|-------------------------|-------------------------|
|-------------------------|-------------------------|-------------------------|-------------------------|
|-7-7---5-5---9-9-9-4/6-2-|-7-7---5-5---9-9-9-4/6---|-7-7---5-5---9-9-9-4/6-2-|-5-5-5-55555-7-7-7-77777-|
|-5-5---3-3---7-7-7-2/4-0-|-5-5---3-3---7-7-7-2/4---|-5-5---3-3---7-7-7-2/4-0-|-3-3-3-33333-5-5-5-55555-|

Verse:
	Guitar 1
|-------------------------|-------------------0-----|--------------|
|-------------------0-----|-------------------------|--------------|
|-------4---------4---4---|-------4---------4-----4-|-------4------|
|-----5---5-----5-------5-|-----5---5-----5-----5---|-----5---5----|
|---0-------0-0-----------|---0-------0-0-----------|---0--------0-|
|-3-----------------------|-3-----------------------|-3------------|
	Guitar 2
|-------------------------|-------------------------|------------|
|-------------------------|-------------------------|------------|
|-------------------------|-------------------------|------------|
|-------------------------|-------------------------|------------|
|-------------------------|-7--7-7-7-7-5--5-5-5-5-2-|------------|
|-------------------------|-5-5-5-5-5-3-3-3-3-3-0-|------------|

	Guitar 1
|---------------------|---------------------|---------------------|---------------------|
|---------------------|---------------------|---------------------|---------------------|
|---------------------|---------------------|---------------------|---------------------|
|---------------------|---------------------|---------------------|---------------------|
|-7-x-7-x-7-5-x-5-x-5-|-2-x-2-x-2-4-x-4-x-4-|-7-x-7-x-7-5-x-5-x-5-|-2-x-2-x-2-4-x-4-x-4-|
|-5-x-5-x-5-3-x-3-x-3-|-0-x-0-x-0-2-x-2-x-2-|-5-x-5-x-5-3-x-3-x-3-|-0-x-0-x-0-2-x-2-x-2-|
	Guitar 2
|---------------------|---------------------|---------------------|---------------------|
|---------------------|---------------------|---------------------|---------------------|
|---------------------|---------------------|---------------------|---------------------|
|---------------------|---------------------|---------------------|---------------------|
|-7-7-7-7-7-5---------|-2-2-2-2-2-4-4-4-4-4-|-7-7-7-7-7-5---------|-2-2-2-2-2-4--4--4--4|
|-5-5-5-5-5-3---------|-0-0-0-0-0-2-2-2-2-2-|-5-5-5-5-5-3---------|-0-0-0-0-0-2-2-2--2|





Comments


Popular Unsigned tabs & chords
Casual- Camino Bass Tabs
District4 - Over Bass Tabs
Dr Jones Bass Tabs
The Camarillas - Why Me Bass Tabs
The Happy Birthday Song Bass Tabs
Tifoidea - 13 De La Mala Suerte Bass Tabs
Apu - She Is Tabs
Bloody Knucles-Stupid Bitch Tabs
Inspector Gadget Theme Tabs
Lizards Of Oz - Bridge Tabs


Song lyrics



↑ Back to top | Tablatures and chords are parodies/interpretations of the original songs. You may use it for private study, scholarship, research or language learning purposes only
© 2014 AZChords.com Contact us | Privacy policy | DMCA | Add/correct tabs | Request tabs | Top 50 tabs