>
 >
Underview - We Bang Our Heads

Underview - We Bang Our Heads Guitar Tabs

Unsigned - Underview - We Bang Our Heads chords, tabs, tablatures, lyrics

Guitar lessons | Add/correct | Request | Top 50 tabs Artists:  A B C D E F G H I J K L M N O P Q R S T U V W X Y Z 0-9

Underview - We Bang Our Heads Guitar Tabs – Unsigned

CD, Sheet music, Poster

Do you like Underview - We Bang Our Heads? Share with your friends now
Tabs
x()=note muted on sertain fret
`-let note ring
H-hammer ON note
L-let OFF note
/slide up to selected fret
\-slide down to selected fret
ps\-pick srape down 
ps/-pick scrape up
TT-hit whammy bar or pedal
v- vibrate note
b-bend note
    D
E|--2--2-------------------------------------------------------------------------|
B|--3--3-------------------------------------------------------------------------|
G|--2--2-------------------------------------------------------------------------|
D|--0--0-------------------------------------------------------------------------|
A|--------ps\--x(1)x(1)-----------------------------------x(1)-x(1)-x(1)-x(1)----|
D|--------ps\--x(1)x(1)-----12v---10v------10v---12v------x(1)-x(1)-x(1)-x(1)----|
                           two  lives     one way
E|--------------------------------------------------------------------------------|
B|--------------------------------------------------------------------------------|
G|--------repeat-5x---------------------------------------------------------------|
D|-|----------5-5-5-55----------|------------------------reapeat-10x--------------|
A|-|--0-0-----3-3-3-33--5--3--0~|----------------|-2/3\2--0h2--2/3\2--0h2|--------| D|-|--0-0---------------5--3--0~|----------------|-2/3\2--0h2--2/3\2--0h2|--------|
                                    hahahahah

E|--------------------------------------------------------------------------------|
B|--------------------------------------------------------------------------------|
G|---------repeat-3x----------------7b---5v-7BV-5---------------------------------|
D|--|---------5-5-5-55---7--7-7|------7b---------7v-----------reapeat-10x---------|
A|--|-0-0-----3-3-3-33---5--5-5|--55----------------5--3-0|-2/3\2--0h2--2/3\2--0h2| D|--|-0-0----------------------|--------------------------|-2/3\2--0h2--2/3\2--0h2|
                                
A|-----5-5L--3L--0---3bv-----------------------------------|
D|---0------------------5L--3L--0---------------------|

i'm only i3 but i play the guitar like a mother fu*ker





Comments


Popular Unsigned tabs & chords
1-16 Bass Tabs
Aaron Doyle - I Dont Like People Who Are Bass Tabs
Bacchanalia Bass Tabs
Funkplant - The Awakening Veriant Bass Tabs
R33b0rn - Falling Bass Tabs
Smd - Cheesecake Bass Tabs
The Motive - The Poor Mans Club Bass Tabs
Catalyst - Exposed Tabs
Empty Slot- Dork Tabs
Kamarach - Odium Ore Tabs


Song lyrics



↑ Back to top | Tablatures and chords are parodies/interpretations of the original songs. You may use it for private study, scholarship, research or language learning purposes only
© 2014 AZChords.com Contact us | Privacy policy | DMCA | Add/correct tabs | Request tabs | Top 50 tabs