» » »

Undecided - Things Happen Tabs (ver.1)

Artists:  A B C D E F G H I J K L M N O P Q R S T U V W X Y Z # 

Undecided - Things Happen Tabs (ver.1)

Unsigned
Rating:
0/5 (0 votes)

Hard to play? Try these video lessons and learn fast.
                E)----------------------------------------
B)----------------------------------------
G)----------------------------------------
D)----------------------------------------
A)----------------------------------------
E)-5-5-5-5-5-7-7-7-7-7-5-5-5-5-5-9/--5-5-5-

E)----------------------------------------
B)----------------------------------------
G)----------------------------------------
D)----------------------------------------
A)----------------------------------------
E)5-5-7-7-7-7-7-5-5-5-5-5-12/--5-5-5-5-5---

E)-------------------------------------------
B)-------------------------------------------
G)-------------------------------------------
D)-------------------------------------------
A)7-7-7-7-7------------------3-3-3-3-3-------
E)-------------------------------------------

E)------------5-5-5-5-5-1-5-----------------
B)------------------------------------------
G)------------------------------------------
D)------------------------------------------
A)5-5-5-5-5-3bd-3---------------------------
E)---------------------5--------------------

E)----------------------------------------
B)----------------------------------------
G)----------------------------------------
D)0-3-4-3-0--0-3-4-3-0--2-5-6-5-2--0-3-4-3
A)----------------------------------------
E)----------------------------------------

E)------------------------------------------
B)3-4-6-4-3--3-4-6-4-3--5-6-8-6-5--3-4-6-4-3
G)------------------------------------------
D)------------------------------------------
A)------------------------------------------
E)------------------------------------------
            
Hard to play? Try these video lessons and learn fast. | Correct




comments powered by Disqus
↑ Back to top | Tablatures and chords are parodies/interpretations of the original songs. You may use it for private study, scholarship, research or language learning purposes only