» » »

Undecided - The Life Tabs (ver.1)

Artists:  A B C D E F G H I J K L M N O P Q R S T U V W X Y Z # 

Undecided - The Life Tabs (ver.1)

Unsigned
Rating:
0/5 (0 votes)

Hard to play? Try these video lessons and learn fast.
                -0-----------------------------------
---2--------8------3-----------------
-----5---------3---------------------
-------6-----------------------------
---------------------6---------------
-------7------------------------7----

-0-----------------------------------
---2--------8------3-----------------
-----5---------3---------------------
-------6-----------------------------
---------------------6---------------
-------7------------------------7----

-0-----------------------------------
---2--------8------3-----------------
-----5---------3---------------------
-------6-----------------------------
---------------------6---------------
-------7------------------------7----

-0-----------------------------------
---2--------8------3-----------------
-----5---------3---------------------
-------6-----------------------------
---------------------6---------------
-------7------------------------7----

-0-----------------------------------
---2--------8------3-----------------
-----5---------3---------------------
-------6-----------------------------
---------------------6---------------
-------7------------------------7----
            
Hard to play? Try these video lessons and learn fast. | Correct




comments powered by Disqus
↑ Back to top | Tablatures and chords are parodies/interpretations of the original songs. You may use it for private study, scholarship, research or language learning purposes only