» » »

Unsigned, Unarmed - To The Flag Bass tabs (ver.1)

Artists:  A B C D E F G H I J K L M N O P Q R S T U V W X Y Z # 

Unarmed - To The Flag Bass tabs (ver.1)

Unsigned Tabs
 Rating:
4/5 (4 votes)
Unarmed - To The Flag lessons Tabs too difficult? Try these video lessons and learn fast
1
                to the flag


ch
to the flag, to me it has a different meaning
under god, but whos to say that i believe
hand on heart you say your true, for justice; liberty
but lying for them is nothing new; they ***ed us with their greed

v2
yea your who i despise, you smile while others grieve
because your well off and fake smiles on, yea i can see you grinning
you want it so you grab, you dont have because you need
while others starve, you ***in rob the ground beneath our feet

v1
you cant open your eyes, you dont want to believe
that all you knew and all your rights were wrong from the beginning
you feel a certain stab, a pain that wont deceive
its in your back, sets you off track, its a fight that your not winning





chorus #1                                          x2
|----------------|----------------|----------------------------------|
|----------------|----------------|----------------------------------|
|-------3333--22-|-------3333--55-|---------33333333--------2---2----|
|0-0-0------33---|0-0-0------33---|-00000000--------33333333---------|

chorus #2                                                       
|----------------|----------------|----------------------------------|
|----------------|----------------|----------------------------------|
|-------3333--22-|-------3333--55-|---------33333333--------22222222-|
|0-0-0------33---|0-0-0------33---|-00000000--------33333333---------|

ch2cont                  (stretch) 
|-------------------------7-7-7-7-|
|---------------------------------|
|---------33333333----------------|
|-00000000--------33333333--------|

verse
|-----------------|
|-----------------|
|--------33333333-|
|55553322---------|


ending              "to the flag"
|--------------------------|
|--------------------------|
|--------------------------|
|drum bridgethen ----0-0-0-|



order
verse 1
chorus 
verse 2
chorus
ending(drum bridge, then "to the flag")
            
Submit corrections

comments powered by Disqus
↑ Back to top | Unsigned Bass for Unarmed - To The Flag. Lyrics for acoustic guitar and electric guitar. 1 Tablatures and chords are parodies/interpretations of the original songs. You may use it for private study, scholarship, research or language learning purposes only