» » »

Unsigned, Unarmed - I Wont Take It Bass tabs (ver.1)

Artists:  A B C D E F G H I J K L M N O P Q R S T U V W X Y Z # 

Unarmed - I Wont Take It Bass tabs (ver.1)

Unsigned Tabs
 Rating:
4/5 (4 votes)
Unarmed - I Wont Take It lessons Tabs too difficult? Try these video lessons and learn fast
1
                verse
|--------------------------------|------------------------------|
|--------------------------------|------------------------------|
|--------8-8-7-7-----------------|--------8-7-8-10-8-7-8-10-8-7-|
|5-5-5-5---------7-8-8-8-7-8-8-8-|5-5-5-5-----------------------|

chorus-  
|--------------------------------|------------------------------------|
|--------------------------------|------------------------------------|
|--------5-5-7-5---------3-3-232-|--------5-5-7-5-7-7-8-8-10-10-10-10-|
|5-5-5-5---------3-3-3-3---------|5-5-5-5-----------------------------|

chcont.
|--------------------------------|------------------------------------|
|--------------------------------|------------------------------------|
|--------5-5-7-5---------3-3-232-|--------5-5-7-5-7-7-8-8-10-10-12-12-|
|5-5-5-5---------3-3-3-3---------|5-5-5-5-----------------------------|

bridge
|-----------------|
|-----------------|
|----8888--55-----|
|5555----88--3353-|


*op1*   x 2 
|------------799954--|
|------------------2-|
|----8877----5777320-|
|5555----8777--------|

solop1                   sss   f f f    f f f       s
|-----------------------------------------------------|
|---------------5-----5--------------------------5----|
|------5--7---57-75-57-757775-57585755-57585755-5-757-|
|----57-75-757-----7---------7--------7--------7------|
|--57-------------------------------------------------|
|58---------------------------------------------------|

solop2                                               stretch            stretch
e|85-85-85-85--8---10--85-85-85-85--8--3-85-85-85-85-8-8888-85-85-85-85-8-883-33-|
b|--5--5--5--58-810--10--5--5--5--58-83-3--5--5--5--58-8888---5--5--5--58-883-33-|

ending
|--------------------|
|--------------------|
|--------------------|
|5-------1---0---5---|

order
bridge           x4
verse            x1(guitar alone)
verse1           x2
chorus           
verse2           x2
bridge           x4
chorus           
pause
*bassplays(E-5)16times then(1guitar plays *op1*)(1 guitar idle)bassplays(E-5)16times
pause
solo(bridge)x4     verse x2
verse3           x2
ending
            
Submit corrections

comments powered by Disqus
↑ Back to top | Unsigned Bass for Unarmed - I Wont Take It. Lyrics for acoustic guitar and electric guitar. 1 Tablatures and chords are parodies/interpretations of the original songs. You may use it for private study, scholarship, research or language learning purposes only