» » »

Unsigned, Unarmed - Better Off Dead Bass tabs (ver.1)

Artists:  A B C D E F G H I J K L M N O P Q R S T U V W X Y Z # 

Unarmed - Better Off Dead Bass tabs (ver.1)

Unsigned Tabs
 Rating:
4/5 (4 votes)
Unarmed - Better Off Dead lessons Tabs too difficult? Try these video lessons and learn fast
1
                intro(hold out note)
g|----------------|
d|----------------|
a|----6---8-------|
e|6-----------6-4-|

verse
g|-------------------------------------------------|
d|-------------------------------------------------|
a|------66-666------------------66-66688-888-------|PAUSE(FILL) BEFORE CHORUS
e|66-666------66-66644-44466-666------------666444-|

chorus
g|---------------------------------|---------------------------------|
d|---------------------------------|---------------------------------|
a|66664444666666662222222211111111-|666644446666666644444444---------|
e|---------------------------------|------------------------44444444-|

bridge
a|------------------------------------------------4444444466666666-|
e|666644446666666622221111222222226666444466666666-----------------|

order is not final yet

intro
verse x 2
chorus x 2
verse x 2
chorus x 2
verse x 2
bridge x 1
verse x 1
intro----------end on E-6
            
Submit corrections

comments powered by Disqus
↑ Back to top | Unsigned Bass for Unarmed - Better Off Dead. Lyrics for acoustic guitar and electric guitar. 1 Tablatures and chords are parodies/interpretations of the original songs. You may use it for private study, scholarship, research or language learning purposes only