» » »

Twisted Nipple - The Day We Do It Tabs (ver.1)

Artists:  A B C D E F G H I J K L M N O P Q R S T U V W X Y Z # 

Twisted Nipple - The Day We Do It Tabs (ver.1)

Unsigned
Rating:
0/5 (0 votes)

Tabs too difficult? Try these video lessons and learn fast.
                this is our first song on here. Hope you guys like it,its pretty big in st.louis.If ur a record lable ask about us in st.luis and they will say we are the best punk rock band
intro:
e--3
b---0h1 5x(play really fast)
g-2------------------------
d--------------------------
a--------------------------
e--------------------------

verse(palm mute with distortion)
e--------------------------
b--------------------------
g--------------------------
d--7-9-h8-5-7-h6-3-5-h4  3x
a-9------7------5----------
e--------------------------

chorus(lots of distortion)
e-0----0----0
b-0----0----0
g-0----0----0
d-o----0----0        
a-999997777755555 2x
e-777775555533333

order
intro
verse
intro
chorus
intro 
verse 
chorus
intro

(this song is played at really fast)
            
Tabs too difficult? Try these video lessons and learn fast.


comments powered by Disqus
↑ Back to top | Tablatures and chords are parodies/interpretations of the original songs. You may use it for private study, scholarship, research or language learning purposes only